» » »

Cold War Kids, Hair Down Tabs (ver.3)

Artists:  A B C D E F G H I J K L M N O P Q R S T U V W X Y Z # 

Hair Down Tabs (ver.3)

Cold War Kids Tabs
Rating:
5/5 (1 vote)
Hair Down lessons Tabs too difficult? Try these video lessons and learn fast
                -------------------------------------------------------------------------------
                             Hair Down - Cold War Kids
-------------------------------------------------------------------------------

Tuning: Standard

Intro: 
e|--------------------------------------------------------------------------|
B|-----10-------------10-----------------10-------------10------------------|
G|-9/11--11--9--9-9/11--11---------9-9/11--11--9--9-9/11--11----------------|
D|---------11-11----------11-----------------11-11----------11--------------|
A|--------------------------------------------------------------------------|
E|--------------------------------------------------------------------------|
  x3

Main rhythm for the whole song:

e|------5----5----5--5--x-x--7--7--x-x--0----0--0--0--0---------------------|
B|-----5-----5----5--5--x-x--7--7--x-x--0----0--0--0--0---------------------|
G|----6------6----6--6--x-x--8--8--x-x--1----1--1--1--1---------------------|
D|---7-------7----7--7--x-x--9--9--x-x--2----2--2--2--2---------------------|
A|--7--------7----7--7--x-x--9--9--x-x--2----2--2--2--2---------------------|
E|-5---------5----5--5--x-x--7--7--x-x--0----0--0--0--0---------------------|


| /  slide up
| \  slide down
| h  hammer-on
| p  pull-off
| ~  vibrato
| +  harmonic
| x  Mute note
===============================================================================
            
Submit corrections

comments powered by Disqus
↑ Back to top | Cold War Kids Tabs for Hair Down. Lyrics for acoustic guitar and electric guitar. Tablatures and chords are parodies/interpretations of the original songs. You may use it for private study, scholarship, research or language learning purposes only