» » »

Saint John Bass tabs (ver.1)

Artists:  A B C D E F G H I J K L M N O P Q R S T U V W X Y Z # 

Saint John Bass tabs (ver.1)

Cold War Kids
Rating:
4/5 (4 votes)

Tabs too difficult? Try these video lessons and learn fast.
                Intro/Verse/Outro
G|---------------------------------------------------|
D|---------------------------------------------------|
A|---------------------------------------------------|
E|-7~---5-0~-----(x-xx)7~---5-0~---------------------|

The muted notes are played every once in a while.

Chorus
G|---------------------------------------------------|
D|-------------------------------------7-------------|
A|-----7--9----9--7------------7--9-------7----------|
E|-7-----------------7-----7-----------------7-------|
            
Tabs too difficult? Try these video lessons and learn fast.




comments powered by Disqus
↑ Back to top | Tablatures and chords are parodies/interpretations of the original songs. You may use it for private study, scholarship, research or language learning purposes only