» » »

Just Got Wicked Tabs (ver.3)

Artists:  A B C D E F G H I J K L M N O P Q R S T U V W X Y Z # 

Just Got Wicked Tabs (ver.3)

Cold
Rating:
0/5 (0 votes)

Hard to play? Try these video lessons and learn fast.
                Cold
Just Got Wicked


tuning - drop d and down a step
CGCFAD

Intro

D|-----------------------------------------------------
A|-----------------------------------------------------
F|----------*-14-14-14-14-14-13-13-13-13-12-12-12-12-12
C|---0--0----------------------------------------------
G|---0--0----------------------------------------------
C|---0--0----------------------------------------------

* Tap these notes

Verse

D|---------------------------
A|---------------------------
F|---------------------------
C|----0--0-------------------
G|----0--0-------------------
C|----0--0-------------------
	Slight palm mute where necessary

Chorus (Tabbed for 1 guitar)

D|-----------------------------
A|-----------------------------
F|------------*0----------*0---
C|---7---10--------3-----------
G|---7---10--------3---3-------
C|---7---10--------3-----------
* = harmonics

Bridge

D|-------------------------
A|-------------------------
F|-------------------------
C|-0-0-5-5-5-6-6-6-8-8-8-8-
G|-0-0-5-5-5-6-6-6-8-8-8-8-
C|-0-0-5-5-5-6-6-6-8-8-8-8-
            
Hard to play? Try these video lessons and learn fast. | Correct




comments powered by Disqus
↑ Back to top | Tablatures and chords are parodies/interpretations of the original songs. You may use it for private study, scholarship, research or language learning purposes only