» » »

Just Got Wicked Bass tabs (ver.1)

Artists:  A B C D E F G H I J K L M N O P Q R S T U V W X Y Z # 

Just Got Wicked Bass tabs (ver.1)

Cold
Rating:
0/5 (0 votes)

Hard to play? Try these video lessons and learn fast.
                verse/ main riff

G--------------------
D--------------------
A--------------------
E--------------------
B-1--1--1h2-3-3-4h5-5

you will get the rhythm...you got to feel it

chorus

G----------------|---------------|
D------333333333-|---------------|
A----1-----------|------888888888|
E--3-------------|----6----------|
B----------------|--4------------|

i hope the chorus is right because i got it by a guitar tab


breakdown after the 2nd chorus i think

G-------------------------------
D-------------------------------
A-------------------------------
E-------------------------------
B-1-1------1-1-------1-1-----1--

you will get the rhythm...just listen to the guitar



well that should do it..if you cant figure it out...put down your
bass and run away...or you could e-mail me with cut downs, compliments,
            
Hard to play? Try these video lessons and learn fast. | Correct




comments powered by Disqus
↑ Back to top | Tablatures and chords are parodies/interpretations of the original songs. You may use it for private study, scholarship, research or language learning purposes only