» » »

Just Got Wicked Tabs (ver.2)

Artists:  A B C D E F G H I J K L M N O P Q R S T U V W X Y Z # 

Just Got Wicked Tabs (ver.2)

Cold
Rating:
0/5 (0 votes)

Hard to play? Try these video lessons and learn fast.
                Cold-Just Got Wicked
-Tunning-Drop D-(actual tuning is drop full step then D)

-Intro/Fill-
E----------------------------------------------
B----------------------------------------------
G----------------------------------------------
D--0-0----19-19-19-19-19-18-18-18-18-17-17-17--
A--0-0-----------------------------------------
D--0-0-----------------------------------------

-Fill2-
E----------------------------------------
B----------------------------------------
G---------------------------19/21\19-----
D---17-17-17-17-17/19-19-19--------------
A----------------------------------------
D----------------------------------------

  
-Chorus-
E-------------------------------------------
B-------------------------------------------
G-------------------------------------------
D-----------5-------------------5-----------
A---0---3-------------------3---------------
D-----------------------3-------------------   

-Chorus/2nd Guitar-
E-------------------------------------------
B-------------------------------------------
G-------------------------------------------
D---7-------------------5-------------------
A---7-------------------3------------------- 
D---7-------------------3-------------------

     
-Verse-
E----------------------
B----------------------
G----------------------
D--0-0-222-333-555-----
A--0-0-222-333-555-----
D--0-0-222-333-555-----

-Bridge-
E------------------------
B------------------------
G------------------------
D--0-0-555-6666/8888-----
A--0-0-555-6666/8888-----
D--0-0-555-6666/8888-----
            
Hard to play? Try these video lessons and learn fast. | Correct




comments powered by Disqus
↑ Back to top | Tablatures and chords are parodies/interpretations of the original songs. You may use it for private study, scholarship, research or language learning purposes only