» » »

No One Tabs (ver.1)

Artists:  A B C D E F G H I J K L M N O P Q R S T U V W X Y Z # 

No One Tabs (ver.1)

Cold
Rating:
0/5 (0 votes)

Hard to play? Try these video lessons and learn fast.
                
This song is real easy once you get the hang of it. Listen to the song for the timing and rhythm. I haven't figured out the bridge yet, but once I do I'll post it. By the way 13 Ways To Bleed Onstage is by far one of the best cds I've bought in a while. It's incredible.

Drop D tuning: DADGBe
/=SLIDE
INTRO & VERSES:

e---------------------------------------
B---------------------------------------
G---------------------------------------
D--5--5--6--6--6----6--6----5-5-5-5/6-5-
A-8--8--8--8--8--0-4--4--0-3------------
D---------------------------------------REPEAT AS NECESSARY

CHORUS:
Note: this is not the exact strumming pattern, just the chords.

e-----------------------------
B-----------------------------
G-----------------------------
D-10-10-10-10-6-6-6-6-5-5-5-5-
A-8--8--8--8--6-6-6-6-5-5-5-5-
D-8--8--8--8--6-6-6-6-5-5-5-5-

The outro is the same as the intro, but drag out the last few notes a little and let the last note ring. There are a few simple 2nd guitar fills played over the verses and chorus that I left out cuz I'm tired, but they're not too hard to figure out. Like I said when I figure out the bridge I'll post it. Email me if u have any questions or comments.
            
Hard to play? Try these video lessons and learn fast. | Correct




comments powered by Disqus
↑ Back to top | Tablatures and chords are parodies/interpretations of the original songs. You may use it for private study, scholarship, research or language learning purposes only