» » »

Cold, Anti Love Song Tabs (ver.2)

Artists:  A B C D E F G H I J K L M N O P Q R S T U V W X Y Z # 

Anti Love Song Tabs (ver.2)

Cold Tabs
 Rating:
4/5 (4 votes)
Anti Love Song lessons Tabs too difficult? Try these video lessons and learn fast
1
                "(2)
COLD: 13 WAYS TO BLEED ON STAGE
ANTI-LOVE SONG

Tuning: Drop D Down 1 Step (C,G,C,F,A,D)

Intro:
D||----------||
A||----------||
F||----------||
C||----------||
G||-6-6-6-0--||
C||-6-6-6-0--||

Verse:
D||-------------------------------------||
A||-------------------------------------||
F||-------------------------------------||
C||-------------------------------------||
G||-6-6-0-0--0-0-3-3--3-3-2-2--2-2-6-6--||
C||-6-6-0-0--0-0-3-3--3-3-2-2--2-2-6-6--||

Chorus:
D||--------------------------------------||
A||--------------------------------------||
F||--------------------------------------||
C||--------------------------------------||
G||--0-0-0-0--3-3-3-3--2-2-2-2--6-6-6-6--||
C||--0-0-0-0--3-3-3-3--2-2-2-2--6-6-6-6--||
"            
Submit corrections

comments powered by Disqus
↑ Back to top | Cold Tabs for Anti Love Song. Lyrics for acoustic guitar and electric guitar. 1 Tablatures and chords are parodies/interpretations of the original songs. You may use it for private study, scholarship, research or language learning purposes only