» » »

Cold, Anti Love Song Tabs (ver.3)

Artists:  A B C D E F G H I J K L M N O P Q R S T U V W X Y Z # 

Anti Love Song Tabs (ver.3)

Cold Tabs
 Rating:
4/5 (4 votes)
Anti Love Song lessons Tabs too difficult? Try these video lessons and learn fast
                Song name: Anti-Love song
If you don't quite get it, listen to the song and play along with it.

Tuning: Standard(E A D G B E) (low to high)
Heavy distortion
pm=palm muted
Intro

E-------------------
B-------------------
G-------------------   X8
D-------------------
A--13-13-13---------
E--11-11-11---------
pm------
(those are 11 and 13)

Chorus
E------------------------------------------------------
B------------------------------------------------------
G------------------------------------------------------   X2
D------------------------------------------------------
A-10-10-10-10-13-13-13-13-12-12-12-12-16-16-16-16-16-16
E-8 -8 -8 -8 -11-11-11-11-10-10-10-10-14-14-14-14-14-14

E-------------------
B-------------------
G-------------------   X9
D-------------------
A--13-13-13---------
E--11-11-11---------
pm------

Chorus
E------------------------------------------------------
B------------------------------------------------------
G------------------------------------------------------   X4
D------------------------------------------------------
A-10-10-10-10-13-13-13-13-12-12-12-12-16-16-16-16-16-16
E-8 -8 -8 -8 -11-11-11-11-10-10-10-10-14-14-14-14-14-14

Chorus(acoustic)
E------------------------------------------------------
B------------------------------------------------------
G------------------------------------------------------   X6
D------------------------------------------------------
A-10-10-10-10-13-13-13-13-12-12-12-12-16-16-16-16-16-16
E-8 -8 -8 -8 -11-11-11-11-10-10-10-10-14-14-14-14-14-14

Bridge
E------------------------------------------------------
B------------------------------------------------------
G------------------------------------------------------   X2
D------------------------------------------------------
A-10-10-10-10-13-13-13-13-12-12-12-12-16-16-16-16-16-16
E-8 -8 -8 -8 -11-11-11-11-10-10-10-10-14-14-14-14-14-14
pm all the way through

Chorus(again)
E------------------------------------------------------
B------------------------------------------------------
G------------------------------------------------------   X4
D------------------------------------------------------
A-10-10-10-10-13-13-13-13-12-12-12-12-16-16-16-16-16-16
E-8 -8 -8 -8 -11-11-11-11-10-10-10-10-14-14-14-14-14-14

Outro
E----------------
B----------------
G----------------
D----------------  X3
A-10-------------
E-8 -------------
to do the effect, use your pickup changer, go from the humbucker(all the way down), to the
top(neck pickup) and repeat 3 times.
            
Submit corrections

comments powered by Disqus
↑ Back to top | Cold Tabs for Anti Love Song. Lyrics for acoustic guitar and electric guitar. Tablatures and chords are parodies/interpretations of the original songs. You may use it for private study, scholarship, research or language learning purposes only