» » »

Cold, Anti Love Song Tabs (ver.1)

Artists:  A B C D E F G H I J K L M N O P Q R S T U V W X Y Z # 

Anti Love Song Tabs (ver.1)

Cold Tabs
Rating:
0/5 (0 votes)
Anti Love Song lessons Tabs too difficult? Try these video lessons and learn fast
                "(1)
Cold
Anti-Love Song


tuning - drop d and down a step
CGCFAD

Intro

D|-------------------------------------------------
A|-------------------------------------------------
F|-------------------------------------------------
C|--x-x-x-0----------------------------------------
G|--x-x-x-0----------------------------------------
C|--x-x-x-0----------------------------------------

Verse

D|-------------------------------------------------
A|-------------------------------------------------
F|-------------------------------------------------
C|--x--0--0-3--3-2--2-6--6-------------------------
G|--x--0--0-3--3-2--2-6--6-------------------------
C|--x--0--0-3--3-2--2-6--6-------------------------
	Slight palm mute where necessary

Chorus

D|-------------------------------------------------
A|-------------------------------------------------
F|-------------------------------------------------
C|--0-0-0-3-3-3-2-2-2-6-6-6-6-6--------------------
G|--0-0-0-3-3-3-2-2-2-6-6-6-6-6--------------------
C|--0-0-0-3-3-3-2-2-2-6-6-6-6-6--------------------

Acoustic bridge

D|-0-0-0-0-3-3-3-2-2-2-1-1-1-
A|-0-0-0-0-3-3-3-2-2-2-1-1-1-
F|-0-0-0-0-5-5-5-4-4-4-3-3-3-
C|-0-0-0-0-5-5-5-4-4-4-3-3-3-
G|-0-0-0-0-3-3-3-2-2-2-1-1-1-
C|-0-0-0-0-3-3-3-2-2-2-1-1-1-

  Pretty sure the bridge is not right, sounds ok anyways
"            

comments powered by Disqus
↑ Back to top | Cold Tabs for Anti Love Song. Lyrics for acoustic guitar and electric guitar. Tablatures and chords are parodies/interpretations of the original songs. You may use it for private study, scholarship, research or language learning purposes only