>
 >
In Fear And Faith

In Fear And Faith Guitar Tabs

Circa Survive - In Fear And Faith chords, tabs, tablatures, lyrics

Guitar lessons | Add/correct | Request | Top 50 tabs Artists:  A B C D E F G H I J K L M N O P Q R S T U V W X Y Z 0-9

In Fear And Faith Guitar Tabs – Circa Survive

CD, Sheet music, Poster

Do you like In Fear And Faith? Share with your friends now
Bass TabsBass Tabs v2Bass Tabs v3Bass Tabs v4Drum TabsTabsTabs v2Tabs v3
                              Juturna (2005)
                    



 Words and Music by Circa Survive
Arranged by Circa Survive
 

Gtr I (Eb Ab Db Gb Bb Eb) - 'Untitled'
Gtr II (Eb Ab Db Gb Bb Eb) - 'Untitled'
Gtr III (Eb Ab Db Gb Bb Eb) - 'Untitled'
Gtr IV (Eb Ab Db Gb Bb Eb) - 'Untitled'
Gtr V (Eb Ab Db Gb Bb Eb) - 'Untitled'


 Intro
  Q=145
  G#m
 4/4
  Gtr V
   <
   W           +W
|-(7)--------|-(7)----|
|--9---------|-(9)----|
|------------|--------|
|------------|--------|
|------------|--------|
|------------|--------|


  G#m                                             B         A#m
  Gtr II
   q   q  q  q     q   q  q  q     q   q  q  q      q    q   q   q
|--7---7--7--7--|--7---7--7--7--|--7---7--7--7--|-/11---11---9---9--|
|--9---9--9--9--|--9---9--9--9--|--9---9--9--9--|-/12---12--11--11--|
|---------------|---------------|---------------|-------------------|
|---------------|---------------|---------------|-------------------|
|---------------|---------------|---------------|-------------------|
|---------------|---------------|---------------|-------------------|
|
| Gtr V
| +W              +W              +W               +W
|-(7)-----------|-(7)-----------|-(7)-----------|--(7)--------------|
|-(9)-----------|-(9)-----------|-(9)-----------|--(9)--------------|
|---------------|---------------|---------------|-------------------|
|---------------|---------------|---------------|-------------------|
|---------------|---------------|---------------|-------------------|
|---------------|---------------|---------------|-------------------|


  F#                                              B         A#m
   q   q  q  q     q   q  q  q     q   q  q  q      q    q   q   q
|--6---6--6--6--|--6---6--6--6--|--6---6--6--6--|-/11---11---9---9--|
|--7---7--7--7--|--7---7--7--7--|--7---7--7--7--|-/12---12--11--11--|
|---------------|---------------|---------------|-------------------|
|---------------|---------------|---------------|-------------------|
|---------------|---------------|---------------|-------------------|
|---------------|---------------|---------------|-------------------|
|
|  W              +W               W               +W
|-(7)-----------|-(7)-----------|-(7)-----------|--(7)--------------|
|-(9)-----------|-(9)-----------|-(9)-----------|--(9)--------------|
|---------------|---------------|---------------|-------------------|
|---------------|---------------|--8------------|--(8)--------------|
|--9------------|-(9)-----------|-(9)-----------|--(9)--------------|
|---------------|---------------|---------------|-------------------|


 Verse
  G#m                                                  B           A#m
  Gtr I
  E  E E E H       +E  E E E H       +E  E E E H         Q.     Q.      Q
|----------------|-----------------|-----------------|---------------------|
|------0---------|-------0---------|-------0---------|---------------------|
|----------------|-----------------|-----------------|---8-----------------|
|---/6---6-8-----|-(8)-6---6-8-----|-(8)-6---6-8-----|----------9------11--|
|----------------|-----------------|-----------------|---------------------|
|----------------|-----------------|-----------------|---------------------|
|
| Gtr II
| q    q   q  q     q    q   q  q     q    q   q  q      q    q     q   q
|-7----7---7--7--|--7----7---7--7--|--7----7---7--7--|-/11---11-----9---9--|
|-9----9---9--9--|--9----9---9--9--|--9----9---9--9--|-/12---12----11--11--|
|----------------|-----------------|-----------------|---------------------|
|----------------|-----------------|-----------------|---------------------|
|----------------|-----------------|-----------------|---------------------|
|----------------|-----------------|-----------------|---------------------|
|
| Gtr V
| W                +W                +W                 +W
|-7--------------|-(7)-------------|-(7)-------------|--(7)----------------|
|-9--------------|-(9)-------------|-(9)-------------|--(9)----------------|
|----------------|-----------------|-----------------|---------------------|
|----------------|-----------------|-----------------|---------------------|
|----------------|-----------------|-----------------|---------------------|
|----------------|-----------------|-----------------|---------------------|


  F#
   Q    E Q.     Q     +H.         E E
|-------------------|------------------|
|-------------------|------------------|
|---------8---------|----------------8-|
|------11-------11--|-(11)--------11---|
|--9----------------|------------------|
|-------------------|------------------|
|
|  q    q    q   q      q   q  q   q
|--6----6----6---6--|---6---6--6---6---|
|--7----7----7---7--|---7---7--7---7---|
|-------------------|------------------|
|-------------------|------------------|
|-------------------|------------------|
|-------------------|------------------|
|
|  W                   +W
|-(7)---------------|--(7)-------------|
|-(9)---------------|--(9)-------------|
|-------------------|------------------|
|-------------------|------------------|
|--9----------------|--(9)-------------|
|-------------------|------------------|


                    B            A#m
  +H.        E  E    +Q.      Q.      Q
|-----------------|----------------------|
|-----------------|----------------------|
|-(8)-------------|------------------15--|
|-----------------|----------16----------|
|------------9s14-|-(14)-----------------|
|-----------------|----------------------|
|
|  q   q  q  q        q    q      q   q
|--6---6--6--6----|-/11---11------9---9--|
|--7---7--7--7----|-/12---12-----11--11--|
|-----------------|----------------------|
|-----------------|----------------------|
|-----------------|----------------------|
|-----------------|----------------------|
|
|  W                 +W
|-(7)-------------|--(7)-----------------|
|-(9)-------------|--(9)-----------------|
|-----------------|----------------------|
|--8--------------|--(8)-----------------|
|-(9)-------------|--(9)-----------------|
|-----------------|----------------------|


  G#m
   Q   E  Q.      E  E    E   E  E  Q.     E  E
|----------------------|------------------------|
|-----14-16------------|--------14-16-----------|
|-13-------------13----|-13---------------13----|
|-------------------16-|-----16--------------16-|
|----------------------|------------------------|
|----------------------|------------------------|
|
|  q   q     E E  E  E    q      q     q   q
|--7---7-----7-7--7--7-|--7------7-----7---7----|
|--9---9-----9-9--9--9-|--9------9-----9---9----|
|----------------------|------------------------|
|----------------------|------------------------|
|----------------------|------------------------|
|----------------------|------------------------|
|
|  W                     +W
|--7-------------------|-(7)--------------------|
|--9-------------------|-(9)--------------------|
|----------------------|------------------------|
|----------------------|------------------------|
|----------------------|------------------------|
|----------------------|------------------------|


                         B           A#m
   E   E  E  Q.     Q      Q.     Q.      Q
|----------------------|---------------------|
|--------14-16---------|---------------------|
|-13---------------13S=|===8-----------------|
|-----16---------------|----------9------11--|
|----------------------|---------------------|
|----------------------|---------------------|
|
|  q      q     q   q      q    q     q   q
|--7------7-----7---7--|-/11---11-----9---9--|
|--9------9-----9---9--|-/12---12----11--11--|
|----------------------|---------------------|
|----------------------|---------------------|
|----------------------|---------------------|
|----------------------|---------------------|
|
| +W                      +W
|-(7)------------------|--(7)----------------|
|-(9)------------------|--(9)----------------|
|----------------------|---------------------|
|----------------------|---------------------|
|----------------------|---------------------|
|----------------------|---------------------|


  F#
   Q    E Q.     Q     +H.         E E
|-------------------|------------------|
|-------------------|------------------|
|---------8---------|----------------8-|
|------11-------11--|-(11)--------11---|
|--9----------------|------------------|
|-------------------|------------------|
|
|  q    q    q   q      q   q  q   q
|--6----6----6---6--|---6---6--6---6---|
|--7----7----7---7--|---7---7--7---7---|
|-------------------|------------------|
|-------------------|------------------|
|-------------------|------------------|
|-------------------|------------------|
|
|  W                   +W
|-(7)---------------|--(7)-------------|
|-(9)---------------|--(9)-------------|
|-------------------|------------------|
|-------------------|------------------|
|--9----------------|--(9)-------------|
|-------------------|------------------|


                    B            A#m
  +H.        E  E    +Q.      Q.      Q
|-----------------|----------------------|
|-----------------|----------------------|
|-(8)-------------|------------------15--|
|-----------------|----------16----------|
|------------9s14-|-(14)-----------------|
|-----------------|----------------------|
|
|  q   q  q  q        q    q      q   q
|--6---6--6--6----|-/11---11------9---9--|
|--7---7--7--7----|-/12---12-----11--11--|
|-----------------|----------------------|
|-----------------|----------------------|
|-----------------|----------------------|
|-----------------|----------------------|
|
|  W                 +W
|-(7)-------------|--(7)-----------------|
|-(9)-------------|--(9)-----------------|
|-----------------|----------------------|
|--8--------------|--(8)-----------------|
|-(9)-------------|--(9)-----------------|
|-----------------|----------------------|


 Bridge
  F#         F#/B               F#         F#add11/E
  Q.   Q.     Q    +W           Q.   Q.     Q    +Q   H.
|----------------|------------|----------------|------------|
|-9----9------7--|-(7)--------|-9----9---------|------------|
|----------------|------------|-------------6--|-(6)s=8-----|
|----------------|------------|-------------x--|-(x)--x-----|
|----------------|------------|-------------4--|-(4)s=6-----|
|----------------|------------|----------------|------------|
|
| Q.   Q   E  Q    +W           Q.   Q   E  Q    +W
|----------------|------------|----------------|------------|
|----------------|------------|----------------|------------|
|-3----3---x-^3--|-(3)--------|-3----3---x-^3--|-(3)--------|
|-4----4---x-^4--|-(4)--------|-4----4---x-^4--|-(4)--------|
|------------^2--|-(2)--------|------------^2--|-(2)--------|
|----------------|------------|------------^0--|-(0)--------|


  F#              F#/B
   Q   E E  E  Q.        E  E  E  H    +E
|---------------------|--------------------|
|---------------------|--------------------|
|---------------------|--------------------|
|---------------------|-----------6----(6)-|
|------4-6-(4)--------|--4--6-(4)----------|
|-/4-----------7------|--------------------|
|
|  Q.    Q     E   Q    +W
|---------------------|--------------------|
|---------------------|--------------------|
|--3-----3-----x--^3--|-(3)----------------|
|--4-----4-----x--^4--|-(4)----------------|
|-----------------^2--|-(2)----------------|
|---------------------|--------------------|


  F#             F#add11/E
  +Q   E E  Q     Q    +Q   Q.   Q.
|--------------------|----------------|
|--------------------|----------------|
|--------------------|----------------|
|-(6)----------------|-----------4----|
|------4-6-(4)----2--|-(2)s=4---------|
|--------------------|----------------|
|
|  Q.    Q     E  Q    +W
|--------------------|----------------|
|--------------------|----------------|
|--3-----3-----x-^3--|-(3)------------|
|--4-----4-----x-^4--|-(4)------------|
|----------------^2--|-(2)------------|
|----------------^0--|-(0)------------|


 Verse
  G#m                                                  B           A#m
  Gtr I
  E  E E E H       +E  E E E H       +E  E E E H         Q.     Q.      Q
|----------------|-----------------|-----------------|---------------------|
|------0---------|-------0---------|-------0---------|---------------------|
|----------------|-----------------|-----------------|---8-----------------|
|---/6---6-8-----|-(8)-6---6-8-----|-(8)-6---6-8-----|----------9------11--|
|----------------|-----------------|-----------------|---------------------|
|----------------|-----------------|-----------------|---------------------|
|
| Gtr II
| q    q   q  q     q    q   q  q     q    q   q  q      q    q     q   q
|-7----7---7--7--|--7----7---7--7--|--7----7---7--7--|-/11---11-----9---9--|
|-9----9---9--9--|--9----9---9--9--|--9----9---9--9--|-/12---12----11--11--|
|----------------|-----------------|-----------------|---------------------|
|----------------|-----------------|-----------------|---------------------|
|----------------|-----------------|-----------------|---------------------|
|----------------|-----------------|-----------------|---------------------|
|
| Gtr V
| W                +W                +W                 +W
|-7--------------|-(7)-------------|-(7)-------------|--(7)----------------|
|-9--------------|-(9)-------------|-(9)-------------|--(9)----------------|
|----------------|-----------------|-----------------|---------------------|
|----------------|-----------------|-----------------|---------------------|
|----------------|-----------------|-----------------|---------------------|
|----------------|-----------------|-----------------|---------------------|


  F#                                                     B            A#m
  Q   E Q.     Q     +H.         E E   +H.        E  E    +Q.      Q.      Q
|-----------------|------------------|-----------------|----------------------|
|-----------------|------------------|-----------------|----------------------|
|-------8---------|----------------8-|-(8)-------------|------------------15--|
|----11-------11--|-(11)--------11---|-----------------|----------16----------|
|-9---------------|------------------|------------9s14-|-(14)-----------------|
|-----------------|------------------|-----------------|----------------------|
|
| q   q    q   q      q   q  q   q      q   q  q  q        q    q      q   q
|-6---6----6---6--|---6---6--6---6---|--6---6--6--6----|-/11---11------9---9--|
|-7---7----7---7--|---7---7--7---7---|--7---7--7--7----|-/12---12-----11--11--|
|-----------------|------------------|-----------------|----------------------|
|-----------------|------------------|-----------------|----------------------|
|-----------------|------------------|-----------------|----------------------|
|-----------------|------------------|-----------------|----------------------|
|
| W                  +W                 W                 +W
|-7---------------|--(7)-------------|-(7)-------------|--(7)-----------------|
|-9---------------|--(9)-------------|-(9)-------------|--(9)-----------------|
|-----------------|------------------|-----------------|----------------------|
|-----------------|------------------|--8--------------|--(8)-----------------|
|-9---------------|--(9)-------------|-(9)-------------|--(9)-----------------|
|-----------------|------------------|-----------------|----------------------|


  G#m
   Q   E  Q.      E  E    E   E  E  Q.     E  E
|----------------------|------------------------|
|-----14-16------------|--------14-16-----------|
|-13-------------13----|-13---------------13----|
|-------------------16-|-----16--------------16-|
|----------------------|------------------------|
|----------------------|------------------------|
|
|  q   q     E E  E  E    q      q     q   q
|--7---7-----7-7--7--7-|--7------7-----7---7----|
|--9---9-----9-9--9--9-|--9------9-----9---9----|
|----------------------|------------------------|
|----------------------|------------------------|
|----------------------|------------------------|
|----------------------|------------------------|
|
|  W                     +W
|--7-------------------|-(7)--------------------|
|--9-------------------|-(9)--------------------|
|----------------------|------------------------|
|----------------------|------------------------|
|----------------------|------------------------|
|----------------------|------------------------|


                         B           A#m
   E   E  E  Q.     Q      Q.     Q.      Q
|----------------------|---------------------|
|--------14-16---------|---------------------|
|-13---------------13S=|===8-----------------|
|-----16---------------|----------9------11--|
|----------------------|---------------------|
|----------------------|---------------------|
|
|  q      q     q   q      q    q     q   q
|--7------7-----7---7--|-/11---11-----9---9--|
|--9------9-----9---9--|-/12---12----11--11--|
|----------------------|---------------------|
|----------------------|---------------------|
|----------------------|---------------------|
|----------------------|---------------------|
|
| +W                      +W
|-(7)------------------|--(7)----------------|
|-(9)------------------|--(9)----------------|
|----------------------|---------------------|
|----------------------|---------------------|
|----------------------|---------------------|
|----------------------|---------------------|


  F#                                                     B            A#m
  Q   E Q.     Q     +H.         E E   +H.        E  E    +Q.      Q.      Q
|-----------------|------------------|-----------------|----------------------|
|-----------------|------------------|-----------------|----------------------|
|-------8---------|----------------8-|-(8)-------------|------------------15--|
|----11-------11--|-(11)--------11---|-----------------|----------16----------|
|-9---------------|------------------|------------9s14-|-(14)-----------------|
|-----------------|------------------|-----------------|----------------------|
|
| q   q    q   q      q   q  q   q      q   q  q  q        q    q      q   q
|-6---6----6---6--|---6---6--6---6---|--6---6--6--6----|-/11---11------9---9--|
|-7---7----7---7--|---7---7--7---7---|--7---7--7--7----|-/12---12-----11--11--|
|-----------------|------------------|-----------------|----------------------|
|-----------------|------------------|-----------------|----------------------|
|-----------------|------------------|-----------------|----------------------|
|-----------------|------------------|-----------------|----------------------|
|
| W                  +W                 W                 +W
|-7---------------|--(7)-------------|-(7)-------------|--(7)-----------------|
|-9---------------|--(9)-------------|-(9)-------------|--(9)-----------------|
|-----------------|------------------|-----------------|----------------------|
|-----------------|------------------|--8--------------|--(8)-----------------|
|-9---------------|--(9)-------------|-(9)-------------|--(9)-----------------|
|-----------------|------------------|-----------------|----------------------|


 Bridge
  F#         F#/B               F#         F#add11/E
  Q.   Q.     Q    +W           Q.   Q.     Q    +Q   H.
|----------------|------------|----------------|------------|
|-9----9------7--|-(7)--------|-9----9---------|------------|
|----------------|------------|-------------6--|-(6)s=8-----|
|----------------|------------|-------------x--|-(x)--x-----|
|----------------|------------|-------------4--|-(4)s=6-----|
|----------------|------------|----------------|------------|
|
| Q.   Q   E  Q    +W           Q.   Q   E  Q    +W
|----------------|------------|----------------|------------|
|----------------|------------|----------------|------------|
|-3----3---x-^3--|-(3)--------|-3----3---x-^3--|-(3)--------|
|-4----4---x-^4--|-(4)--------|-4----4---x-^4--|-(4)--------|
|------------^2--|-(2)--------|------------^2--|-(2)--------|
|----------------|------------|------------^0--|-(0)--------|


  F#        F#/B               F#           F#add11/E
  H.         Q    +W           E  E E Q.     Q    +W
|---------------|------------|------------------|--------|
|-7-------------|------------|------------------|--------|
|------------6--|-(6)--------|-6--6s8-8---------|--------|
|---------------|------------|---------------6--|-(6)----|
|---------------|------------|------------------|--------|
|---------------|------------|------------------|--------|
|
| Q.   Q  E  Q    +W           Q.     Q   E  Q    +W
|---------------|------------|------------------|--------|
|---------------|------------|------------------|--------|
|-3----3--x-^3--|-(3)--------|-3------3---x-^3--|-(3)----|
|-4----4--x-^4--|-(4)--------|-4------4---x-^4--|-(4)----|
|-----------^2--|-(2)--------|--------------^2--|-(2)----|
|---------------|------------|--------------^0--|-(0)----|


   Chorus
    D#m/F#
    Gtr III
    Q.   Q  E  Q     +E   Q   E  Q   Q
||----------------|----------------------|
||o---------------|----------------------|
||--8----8--8s15--|-(15)-15--15-15--15\--|
||----------------|----------------------|
||o---------------|----------------------|
||----------------|----------------------|
|
|   Gtr IV
|   TP                TP
|   W                +W
||----------------|----------------------|
||o---------------|----------------------|
||--8-------------|--(8)-----------------|
||--8-------------|--(8)-----------------|
||o-9-------------|--(9)-----------------|
||----------------|----------------------|


   Q.   Q  E  Q     +E   Q   E  Q   Q
|----------------|-----------------------|
|----------------|-----------------------|
|--6----6--6s16--|-(16)-16--16-16--16\---|
|----------------|-----------------------|
|----------------|-----------------------|
|----------------|-----------------------|
|
|  TP                TP
| +W                +W
|----------------|-----------------------|
|----------------|-----------------------|
|-(8)------------|--(8)------------------|
|-(8)------------|--(8)------------------|
|-(9)------------|--(9)------------------|
|----------------|-----------------------|


   E   E  E  E E  E E  E    E  E  E  Q  E  E E
|-----------11-----------|----------11---------|
|-11--12-------9----9----|-----9--------9----9-|
|--------11------11---11-|-11----11-------11---|
|------------------------|---------------------|
|------------------------|---------------------|
|------------------------|---------------------|
|
|  TP                       TP
| +W                       +W
|------------------------|---------------------|
|------------------------|---------------------|
|-(8)--------------------|-(8)-----------------|
|-(8)--------------------|-(8)-----------------|
|-(9)--------------------|-(9)-----------------|
|------------------------|---------------------|


  N.C.
   E   E  E  E  E  E  E  E     E   Q.    E   E  Q
|-14--16----14-16----14-16-|--14---------------------||
|--------------------------|------14----14h=16------o||
|--------11-------11-------|-------------------16\---||
|--------------------------|-------------------------||
|--------------------------|------------------------o||
|--------------------------|-------------------------||
|
|  TP                 TP       TP        TP
|  H.                 Q       +H         H
|--------------------------|-------------------------||
|--------------------------|------------------------o||
|--8-----------------13----|-(13)-------15\----------||
|--------------------------|-------------------------||
|--------------------------|------------------------o||
|--------------------------|-------------------------||


 Bridge
  G#m
       >
  Q    Q     Q     Q      W             W             W
|-----------------------|-------------|-------------|-------------|
|-9\--(9)\--(9)\--(9)\--|-------------|-------------|-------------|
|-----------------------|-------------|-------------|-------------|
|-----------------------|-------------|-------------|-------------|
|-----------------------|-------------|-------------|-------------|
|-----------------------|-------------|-------------|-------------|
|
| Gtr II
| q    q     q     q      q  q  q  q    q  q  q  q    q  q  q  q
|-7----7-----7-----7----|-7--7--7--7--|-7--7--7--7--|-7--7--7--7--|
|-9----9-----9-----9----|-9--9--9--9--|-9--9--9--9--|-9--9--9--9--|
|-----------------------|-------------|-------------|-------------|
|-----------------------|-------------|-------------|-------------|
|-----------------------|-------------|-------------|-------------|
|-----------------------|-------------|-------------|-------------|


   Verse
    G#m/B
    Gtr I
    E E E E E E E E   E E E E E E E E   E E E E E E E E   E E E E E E E E
||------------------|-----------------|-----------------|------------------|
||o-----9-9-----9-9-|-----9-9-----9-9-|-----9-9-----9-9-|-----9-9-----9-9--|
||--x-x-8-8-x-x-8-8-|-x-x-8-8-x-x-8-8-|-x-x-8-8-x-x-8-8-|-x-x-8-8-x-x-8-8--|
||--x-x-9-9-x-x-9-9-|-x-x-9-9-x-x-9-9-|-x-x-9-9-x-x-9-9-|-x-x-9-9-x-x-9-9--|
||o-----------------|-----------------|-----------------|------------------|
||------------------|-----------------|-----------------|------------------|
|
|   q   q   q   q     q   q   q   q     q   q   q   q     q   q   q   q
||--7---7---7---7---|-7---7---7---7---|-6---6---6---6---|-6---6---6---6----|
||o-9---9---9---9---|-9---9---9---9---|-7---7---7---7---|-7---7---7---7----|
||------------------|-----------------|-----------------|------------------|
||------------------|-----------------|-----------------|------------------|
||o-----------------|-----------------|-----------------|------------------|
||------------------|-----------------|-----------------|------------------|


  E E E E E E E E   E E E E E E E E
|-----------------|------------------||
|-----9-9-----9-9-|-----9-9-----9-9-o||
|-x-x-8-8-x-x-8-8-|-x-x-8-8-x-x-8-8--||
|-x-x-9-9-x-x-9-9-|-x-x-9-9-x-x-9-9--||
|-----------------|-----------------o||
|-----------------|------------------||
|
| q   q   q   q     q   q   q   q
|-4---4---4---4---|-4---4---4---4----||
|-5---5---5---5---|-5---5---5---5---o||
|-----------------|------------------||
|-----------------|------------------||
|-----------------|-----------------o||
|-----------------|------------------||


 Bridge
  G#m                         F#
  Gtr II
  q  q  q  q    q  q  q  q    q  q  q  q    q  q  q  q
|-7--7--7--7--|-7--7--7--7--|-6--6--6--6--|-6--6--6--6--|
|-9--9--9--9--|-9--9--9--9--|-7--7--7--7--|-7--7--7--7--|
|-------------|-------------|-------------|-------------|
|-------------|-------------|-------------|-------------|
|-------------|-------------|-------------|-------------|
|-------------|-------------|-------------|-------------|


  E                           N.C.
  Gtr III
  W             W             Q    +Q   +Q   +Q
|-------------|-------------|---------------------|
|-------------|-------------|---------------------|
|-------------|-------------|---------------------|
|-------------|-------------|---------------------|
|-------------|-------------|---------------------|
|-------------|-------------|-2b3--(2)--(2)--(2)--|
|
| Gtr II                    Gtr IV
| q  q  q  q    q  q  q  q    Q    +Q   +Q   +Q
|-4--4--4--4--|-4--4--4--4--|---------------------|
|-5--5--5--5--|-5--5--5--5--|---------------------|
|-------------|-------------|---------------------|
|-------------|-------------|-4b5--(4)--(4)--(4)--|
|-------------|-------------|---------------------|
|-------------|-------------|---------------------|


 Chorus
  D#m/F#
  Q.   Q  E  Q     +E   Q   E  Q   Q      Q.   Q  E  Q     +E   Q   E  Q   Q
|---------------|----------------------|----------------|----------------------|
|---------------|----------------------|----------------|----------------------|
|-8----8--8s15--|-(15)-15--15-15--15\--|--6----6--6s16--|-(16)-16--16-16--16\--|
|---------------|----------------------|----------------|----------------------|
|---------------|----------------------|----------------|----------------------|
|---------------|----------------------|----------------|----------------------|
|
| TP                TP                    TP                TP
| W                +W                    +W                +W
|---------------|----------------------|----------------|----------------------|
|---------------|----------------------|----------------|----------------------|
|-8-------------|--(8)-----------------|-(8)------------|--(8)-----------------|
|-8-------------|--(8)-----------------|-(8)------------|--(8)-----------------|
|-9-------------|--(9)-----------------|-(9)------------|--(9)-----------------|
|---------------|----------------------|----------------|----------------------|


   E  E  E  E E  E E  E    E  E  E  Q  E  E E
|----------11-----------|----------11---------|
|-11-12-------9----9----|-----9--------9----9-|
|-------11------11---11-|-11----11-------11---|
|-----------------------|---------------------|
|-----------------------|---------------------|
|-----------------------|---------------------|
|
|  TP                      TP
|  W                      +W
|-----------------------|---------------------|
|-----------------------|---------------------|
|--8--------------------|-(8)-----------------|
|--8--------------------|-(8)-----------------|
|--9--------------------|-(9)-----------------|
|-----------------------|---------------------|


  N.C.
   E   E  E  E  E  E  E  E     E   Q.    E   E  Q
|-14--16----14-16----14-16-|--14--------------------|
|--------------------------|------14----14h=16------|
|--------11-------11-------|-------------------16\--|
|--------------------------|------------------------|
|--------------------------|------------------------|
|--------------------------|------------------------|
|
|  TP                 TP       TP        TP
|  H.                 Q       +H         H
|--------------------------|------------------------|
|--------------------------|------------------------|
|--8-----------------13----|-(13)-------15\---------|
|--------------------------|------------------------|
|--------------------------|------------------------|
|--------------------------|------------------------|


  D#m/F#
   Q.    Q   E  Q     +E   Q   E  Q   E  E
|------------------|-----------------------|
|-12----12--12-11--|-(11)-11--11-11--11-11-|
|------------------|-----------------------|
|------------------|-----------------------|
|------------------|-----------------------|
|------------------|-----------------------|
|
|  TP                  TP
|  W                  +W
|------------------|-----------------------|
|------------------|-----------------------|
|--8---------------|--(8)------------------|
|--8---------------|--(8)------------------|
|--9---------------|--(9)------------------|
|------------------|-----------------------|


   Q.    E  Q   Q     +E   Q   E  Q   E  E
|------------------|-----------------------|
|-12----12-14--12--|-(12)-11--11-11--11-11-|
|------------------|-----------------------|
|------------------|-----------------------|
|------------------|-----------------------|
|------------------|-----------------------|
|
|  TP                  TP
| +W                  +W
|------------------|-----------------------|
|------------------|-----------------------|
|-(8)--------------|--(8)------------------|
|-(8)--------------|--(8)------------------|
|-(9)--------------|--(9)------------------|
|------------------|-----------------------|


                                 N.C.
  E  E E Q.   Q    +H     H      E E E Q.    Q     +E  Q.    Q   Q
|----------------|-------------|----------------|-------------------|
|-9-11-9-9\------|-------------|----------------|-------------------|
|-------------8--|-(8)----8----|----------------|-------------------|
|----------------|-------------|-9p8h9-9-----8--|--(8)-8-----8---8--|
|----------------|-------------|----------------|-------------------|
|----------------|-------------|----------------|-------------------|
|
| TP                TP           TP          TP     TP       TP
| W                +W            H.          Q     +H        H
|----------------|-------------|----------------|-------------------|
|----------------|-------------|----------------|-------------------|
|-8--------------|-(8)---------|-8----------13--|-(13)------15\-----|
|-8--------------|-(8)---------|----------------|-------------------|
|-9--------------|-(9)---------|----------------|-------------------|
|----------------|-------------|----------------|-------------------|


  A#sus4
  E Q   Q.   Q    +H     Q  Q     E  Q   Q.   Q
|---------------|--------------|-----------------|
|---------------|--------------|-----------------|
|------------8--|-(8)----8--8--|--------------8--|
|-8-9--11-------|--------------|--8--9--11-------|
|---------------|--------------|-----------------|
|---------------|--------------|-----------------|
|
| TP               TP             TP
| W               +W             +W
|---------------|--------------|-----------------|
|---------------|--------------|-----------------|
|-8-------------|-(8)----------|-(8)-------------|
|-8-------------|-(8)----------|-(8)-------------|
|---------------|--------------|-----------------|
|---------------|--------------|-----------------|


  +E   Q   +E        +E   +E        +Q
|----------------------------------------|
|----------------------------------------|
|-(8)------------------------------------|
|-----11--(11)b11.5r(11)-(11)b11.5r(11)--|
|----------------------------------------|
|----------------------------------------|
|
|  TP
| +W
|----------------------------------------|
|----------------------------------------|
|-(8)------------------------------------|
|-(8)------------------------------------|
|----------------------------------------|
|----------------------------------------|


   E  Q   Q.   Q    +H     H
|-----------------|-------------|
|-----------------|-------------|
|--------------8--|-(8)---------|
|--8--9--11-------|--------9----|
|-----------------|-------------|
|-----------------|-------------|
|
|  TP                TP
| +W                +W
|-----------------|-------------|
|-----------------|-------------|
|-(8)-------------|-(8)---------|
|-(8)-------------|-(8)---------|
|-----------------|-------------|
|-----------------|-------------|


   >
   W           +W            +W            +W
|-----------|-------------|-------------|---------*|
|-----------|-------------|-------------|---------*|
|-----------|-------------|-------------|---------*|
|-----------|-------------|-------------|---------*|
|-11--------|-(11)--------|-(11)--------|-(11)----*|
|-----------|-------------|-------------|---------*|
|
|  >
|  W           +W            +W            +W
|-----------|-------------|-------------|---------*|
|-----------|-------------|-------------|---------*|
|--8--------|--(8)--------|--(8)--------|--(8)----*|
|--8--------|--(8)--------|--(8)--------|--(8)----*|
|-----------|-------------|-------------|---------*|
|-----------|-------------|-------------|---------*|






Duration Legend
---------------
W - whole; H - half; Q - quarter; E - 8th; S - 16th; T - 32nd; X - 64th; a - acciaccatura
+ - note tied to previous; . - note dotted; .. - note double dotted
Uncapitalized letters represent notes that are staccato (1/2 duration)
Irregular groupings are notated above the duration line
Duration letters will always appear directly above the note/fret number it represents the
duration for.  Duration letters with no fret number below them represent rests.  Multi-
bar rests are notated in the form Wxn, where n is the number of bars to rest for.  Low
melody durations appear below the staff

Tablature Legend
----------------
 h   - hammer-on
 p   - pull-off
 b   - bend
 pb  - pre-bend
 r   - bend release (if no number after the r, then release immediately)
 /\  - slide into or out of (from/to "nowhere")
 s   - legato slide
 S   - shift slide
 - natural harmonic
[n]  - artificial harmonic
n(n) - tapped harmonic
 ~   - vibrato
 tr  - trill
 T   - tap
 TP  - trem. picking
 PM  - palm muting
\n/  - tremolo bar dip; n = amount to dip
 \n  - tremolo bar down
 n/  - tremolo bar up
/n\  - tremolo bar inverted dip
 =   - hold bend; also acts as connecting device for hammers/pulls
 <> - volume swell (louder/softer)
 x   - on rhythm slash represents muted slash
 o   - on rhythm slash represents single note slash

Misc Legend
-----------
 |  - bar
||  - double bar
||o - repeat start
o|| - repeat end
*|  - double bar (ending)
 :  - bar (freetime)
 $  - Segno
 &  - Coda
Tempo markers -  = BPM(8/16=s8/s16), where s8 = swing 8ths, s16 = swing 16ths





Comments


Popular Circa Survive tabs & chords
Frozen Creek Bass Tabs
In Fear And Faith 2 Bass Tabs
Strange Terrain Chords
Great Golden Baby Intro Tabs
Kicking Your Crosses Down Tabs
Mandala Tabs
Meet Me In Montauk Tabs
Stare Like Youll Stay Intro Tabs
The Glorious Nosebleed Tabs
Spirit Of The Stairwell Ukulele


Song lyrics



↑ Back to top | Tablatures and chords are parodies/interpretations of the original songs. You may use it for private study, scholarship, research or language learning purposes only
© 2014 AZChords.com Contact us | Privacy policy | DMCA | Add/correct tabs | Request tabs | Top 50 tabs