» » »

Great Golden Baby Tabs (ver.2)

Artists:  A B C D E F G H I J K L M N O P Q R S T U V W X Y Z # 

Great Golden Baby Tabs (ver.2)

Circa Survive
Rating:
0/5 (0 votes)

Hard to play? Try these video lessons and learn fast.
                (Intro)

Intro:
e|-------------------------------------------|
b|-------------------------------------------|
g|---------88-------1212---------------------|
d|---1010----1010----------------------------|
a|-------------------------------------------|
D|-------------------------------------------|

e|-------------------------------------------|
b|-------------------------------------------|
g|----0-0-0-0---------0-0-0-0----------------|
d|---6-6-6-6---------3-3-3-3-----------------|
a|-------------------------------------------|
D|-------------------------------------------|

Repeat 4 x

E|------------------|
B|------------------|
G|------------------|
D|----1s3~ ---------|
A|------------------|
D|------------------|

Circa uses a sh*t load of effects on their instruments, but I’m 99% sure this is correct.
            
Hard to play? Try these video lessons and learn fast. | Correct




comments powered by Disqus
↑ Back to top | Tablatures and chords are parodies/interpretations of the original songs. You may use it for private study, scholarship, research or language learning purposes only