» » »

Circa Survive, Get Out Bass tabs (ver.1)

Artists:  A B C D E F G H I J K L M N O P Q R S T U V W X Y Z # 

Get Out Bass tabs (ver.1)

Circa Survive Tabs
 Rating:
4/5 (5 votes)
Get Out lessons Tabs too difficult? Try these video lessons and learn fast
                -------------------------------------------------------------------------------
-------------------------------------------------------------------------------


 Tuning:Drop D


G|--------------------------------|
D|--------------------------------|
A|--------------------------------|
D|7/--------7/--------5555-3333---|

 Verse 
G|--------------------------|
D|--------------------------|
A|--------------------------|
D|7/-7-77/-7-77/-5555-3333--|

G|---------------------------------------|
D|---------------------------------------|
A|------------------33333333-------------|
D|77777777-99999999----------33333333----|

 Chorus
G|--------------------------------------------------------------------|
D|--------------------------------------------------------------------|
A|------------------------------------33333333-55555555---------------|
D|77777777-22222222-77777777-22222222-------------------777777777-----|

G|-----------------------------------|
D|-----------------------------------|
A|-----------------------------------|
D|2-2-2-2-2-2-2-2-2-2-2-2-2-2-2-2----|

 
 Solo x2
G|-------------------------|
D|-------------------------|
A|-------------------------|
D|7/-7-77/-77/-5555-33333--|

 Verse
G|----------------------|
D|----------------------|
A|----------------------|
D|7/--------5555-3333---|

G|-----------|
D|-----------|
A|-----------|
D|7/---------|

G|--------------------------|
D|--------------------------|
A|--------------------------|
D|7/-7-77/-7-77/-5555-3333--|

G|---------------------------------------|
D|---------------------------------------|
A|------------------33333333-------------|
D|77777777-99999999----------33333333----|


G|--------------|
D|--------------|
A|--------------|
D|33333333------|

 Chorus
G|--------------------------------------------------------------------|
D|--------------------------------------------------------------------|
A|------------------------------------33333333-55555555---------------|
D|77777777-22222222-77777777-22222222-------------------777777777-----|

G|-----------------------------------|
D|-----------------------------------|
A|-----------------------------------|
D|2-2-2-2-2-2-2-2-2-2-2-2-2-2-2-2----|

G|--------------------------------------------------|
D|--------------------------------------------------|
A|--------------------------------------------------|
D|14-14-14-14-14-14-14-14-14-14-14-14-14-14-14-14---|

 Bridge x4
G|-------------------------------------|
D|-------------------------------------|
A|-------------------------------------|
D|3333333333333333-7777777777777777----|

G|------------------------------|
D|------------------------------|
A|333333333-55555555------------|
D|-------------------77777777---|

G|-----------------------------------|
D|-----------------------------------|
A|-----------------------------------|
D|2-2-2-2-2-2-2-2-2-2-2-2-2-2-2-2----|

G|-------|
D|-------|
A|-------|
D|14~----|

 x2
G|------------------------------|
D|------------------------------|
A|------------------------------|
D|7/-7-7-77/-7-7-77/-5555-3333--|

 x2
G|--------------------------|
D|--------------------------|
A|--------------------------|
D|7/-7-77/-7-77/-5555-3333--|


G|----------|
D|----------|
A|----------|
D|3~--------|
            
Submit corrections

comments powered by Disqus
↑ Back to top | Circa Survive Bass for Get Out. Lyrics for acoustic guitar and electric guitar. Tablatures and chords are parodies/interpretations of the original songs. You may use it for private study, scholarship, research or language learning purposes only