>
 >
Get Out

Get Out Guitar Tabs

Circa Survive - Get Out chords, tabs, tablatures, lyrics

Guitar lessons | Add/correct | Request | Top 50 tabs Artists:  A B C D E F G H I J K L M N O P Q R S T U V W X Y Z 0-9

Get Out Guitar Tabs – Circa Survive

CD, Sheet music, Poster

Do you like Get Out? Share with your friends now
Bass TabsChordsChords v2Drum TabsTabsUkulele
-----------------------------------------------------------------------------
                     Get Out by Circa Survive
-----------------------------------------------------------------------------

some of the strumming patterns arent tabbed to 100% of how I play it.
wouldnt have done this had he not have done the majority of the tabbing.

Tuning: Drop D

0:00 
e|--------------------------------------------------------------------------|
B|--------------------------------------------------------------------------|
G|------5-55\-5-55\--------------------------5\---5-55\---5-55\-------------|
D|7\----7-77\-7-77\-------7\------5555-33333-7\---7-77\---7-77\---555-33333-|
A|7\----7-77\-7-77\-------7\------5555-33333-7\---7-77\---7-77\---555-33333-|
D|7\----X-XX--X-XX--------7\------5555-33333-X----X-XX----X-XX----555-33333-|


0:19 (listen to song for rhythm/how many times you strum)
e|----------------------------------------------|
B|----------------------------------------------|
G|9--9-9977--7-771212--12-121216--16-16-14--14\-|
D|----------------------------------------------|
A|7--7-7755--5-551010--10-101014--14-14-12--12\-|
D|----------------------------------------------|

Chorus 
0:25     (listen to song for exact beat/strums)
e|--------------------------------------------------------------------------|
B|--------------------------------------------------------------------------|
G|---------------------------------------------------------44X-------4444---|
D|7-7-x-77-7777777-2-2-x-22-2222222--7-7-x-77-7777777--2-2------2-22--------|
A|7-7-x-77-7777777-2-2-x-22-2222222--7-7-x-77-7777777--2-2-22X--2-22-2222---|
D|7-7-x-77-7777777-2-2-x-22-2222222--7-7-x-77-7777777--2-2------2-22--------|
 -
e|--------------------------------------------------------------------------|
B|--------------------------------------------------------------------------|
G|-------------12-1212121212------------------------------------------------|
D|10-101010-10-12-1212121212-12-12-121212-7-7777777---2-2-2-2-2-2-2-2-------|
A|10-101010-10-10-1010101010-12-12-121212-7-7777777---2-2-2-2-2-2-2-2-------|
D|10-101010-10-10-1010101010-12-12-121212-7-7777777---2-2-2-2-2-2-2-2-------|


e|------------------------------------|
B|------------------------------------|
G|-1313131313131313-14141414-16161616-|
D|------------------------------------|
A|-1111111111111111-12121212-14141414-|
D|------------------------------------|


Solo
0:48
e|-----------------------------------------12-15----------------------------|
B|15b17-15b17b15-13-13h15p13---------------------17-15h17p15-----15---------|
G|---------------------------14----14/17\14-------------------14------------|
D|------------------------------14-14/17\14---------------------------------|
A|--------------------------------------------------------------------------|
D|--------------------------------------------------------------------------|
-
e|------------|
B|13h15p13----|
G|---------14-|
D|------------|
A|------------|
D|------------|

0:58 (Use whammy pedal one octave up at the 17) (listen to song for reference)
e|----------------------------16b171717171717171717171717171717\------------|
B|--------------------------------------------------------------------------|
G|--------------------------------------------------------------------------|
D|555-33333-7\----------555-------------------------------------------------|
A|555-33333-7\----------555-------------------------------------------------|
D|555-33333-7\----------555-------------------------------------------------|

1:11
e|--------------------------------|
B|--------------------------------|
G|-5\---5-55\---5-55\-------------|
D|-7\---7-77\---7-77\---555-33333-|
A|-7\---7-77\---7-77\---555-33333-|
D|-X----X-XX----X-XX----555-33333-|

e|-------------------------------------|
B|-------------------------------------|
G|9-99--7-77--12-1212--14------13------|
D|------------------------(x8)----(x6)-|
A|7-77--5-55--10-1010--12------11------|
D|-------------------------------------|

Chorus
1:24  (listen to song for exact beat/strums)
e|--------------------------------------------------------------------------|
B|--------------------------------------------------------------------------|
G|---------------------------------------------------------44X-------4444---|
D|7-7-x-77-7777777-2-2-x-22-2222222--7-7-x-77-7777777--2-2------2-22--------|
A|7-7-x-77-7777777-2-2-x-22-2222222--7-7-x-77-7777777--2-2-22X--2-22-2222---|
D|7-7-x-77-7777777-2-2-x-22-2222222--7-7-x-77-7777777--2-2------2-22--------|
 -
e|--------------------------------------------------------------------------|
B|--------------------------------------------------------------------------|
G|-------------12-1212121212------------------------------------------------|
D|10-101010-10-12-1212121212-12-12-121212-7-7777777---2-2-2-2-2-2-2-2-2-2-2-|
A|10-101010-10-10-1010101010-12-12-121212-7-7777777---2-2-2-2-2-2-2-2-2-2-2-|
D|10-101010-10-10-1010101010-12-12-121212-7-7777777---2-2-2-2-2-2-2-2-2-2-2-|

e|--------------------------------------------------------------------------|
B|--------------------------------------------------------------------------|
G|2-2-2-2-2-9-9-9-9-9-9-9-9-9-9-9-9-9-9-9-9-13-13-13-13-13-13-13-13-14-14-14|
D|2-2-2-2-2-----------------------------------------------------------------|
A|2-2-2-2-2-7-7-7-7-7-7-7-7-7-7-7-7-7-7-7-7-11-11-11-11-11-11-11-11-12-12-12|
D|2-2-2-2-2-----------------------------------------------------------------|

e|---------------|
B|---------------|
G|14-16-16-16-16-|
D|---------------|
A|12-14-14-14-14-|
D|---------------|

solo 
1:53          
e|--------------------------------------------------------------------------|
B|------------13-12-------------------13-12-------------------13-12---------|
G|------------------12-14-------------------12-14-------------------12-14---|
D|12-14-12-14-------------12-14-12-14-------------12-14-12-14---------------|
A|--------------------------------------------------------------------------|
D|--------------------------------------------------------------------------|

e|-----------|
B|-----------|
G|-----------|
D|12-14-12-14|
A|-----------|
D|-----------|

e|--------------------------------------------------------------------------|
B|------------13-12-------------------13-12-------------------13-12---------|
G|------------------12-14-------------------12-14-------------------12-14---|
D|12-14-12-14-------------12-14-12-14-------------12-14-12-14---------------|
A|--------------------------------------------------------------------------|
D|--------------------------------------------------------------------------|

e|--------------|
B|--------------|
G|--------------|
D|12h14p12-10---|
A|------------12|
D|--------------|

e|--------------------------------------------------------------------------|
B|--------------------------------------------------------------------------|
G|--------------------------------------------------------------------------|
D|------------15-14-10-12-------------15-14-10-12-------------15-14-10-12---|
A|10-12-10-12-------------10-12-10-12-------------10-12-10-12---------------|
D|--------------------------------------------------------------------------|

e|-----------|
B|-----------|
G|-----------|
D|-----------|
A|10-12-10-12|
D|-----------|

e|---------------------------------------------------------------------12-|
B|------------------------------------------------------------13-12-------|
G|------------------------------------------------------12-14-------14----|
D|------------15-14-10-12-------------15-14-10-12-12-14-------------------|
A|10-12-10-12-------------10-12-10-12-------------------------------------|
D|------------------------------------------------------------------------|

e|------------------------------------------|
B|13-12-10-12-13-12-10----------------------|
G|------------------------------------------|
D|------------------------------------------|
A|------------------------------------------|
D|------------------------------------------|


2:16

e|-------------------------------------------------------------------|
B|-------------------------------------------------------------------|
G|10-101010-10--12-1212121212--------------------------------9-------|
D|10-101010-10--12-1212121212-12-12-121212-7-7777777-2---------(x9)--|
A|10-101010-10--10-1010101010-12-12-121212-7-7777777-2-(x16)-7-------|
D|10-101010-10--10-1010101010-12-12-121212-7-7777777-2---------------|

2:34
e|-------------------------------------------------------------------|
B|-------------------------------------------------------------------|
G|-x-x-5\---5-55\---5-55\-------------5\---5-55\---5-55\-------------|
D|-x-x-7\---7-77\---7-77\---555-33333-7\---7-77\---7-77\---555-33333-|
A|-x-x-7\---7-77\---7-77\---555-33333-7\---7-77\---7-77\---555-33333-|
D|-x-x-X----X-XX----X-XX----555-33333-X----X-XX----X-XX----555-33333-|

2:46
e|--------------------------------------------------------------------------|
B|--------------------------------------------------------------------------|
G|7-5--------------------------------7-5-------------------------7b8888888b7|
D|----7-6-5------------------------------7-6-5-----------5---5-7------------|
A|----------7-5-7-7-7-5-3----------------------7-5-7-7-7---7----------------|
D|------------------------7---7-7/10----------------------------------------|




************************************

| /   slide up
| \   slide down
| h   hammer-on
| p   pull-off
| ~   vibrato
| +   harmonic
| x   Mute note
| b   Bend
| pb  Pre-bend
| br  Bend release
| pbr Pre-bend release
| brb Bend release bend

************************************
|





Comments


Popular Circa Survive tabs & chords
In Fear And Faith 4 Bass Tabs
Just Pluckin Around A Bit 2 Bass Tabs
Wish Resign Bass Tabs
Dyed In The Wool 2 Chords
I Felt Free 4 Chords
Frozen Creek Tabs
Greatest Lie Intro Tabs
The Difference Between Medicine And Poison Is In The Dose Tabs
Miracle Sun Ukulele
Strange Terrain Ukulele


Song lyrics



↑ Back to top | Tablatures and chords are parodies/interpretations of the original songs. You may use it for private study, scholarship, research or language learning purposes only
© 2014 AZChords.com Contact us | Privacy policy | DMCA | Add/correct tabs | Request tabs | Top 50 tabs