» » »

Circa Survive, Baby Girl Tabs (ver.1)

Artists:  A B C D E F G H I J K L M N O P Q R S T U V W X Y Z # 

Baby Girl Tabs (ver.1)

Circa Survive Tabs
Rating:
4/5 (6 votes)
Baby Girl lessons Tabs too difficult? Try these video lessons and learn fast
                hey im Ej and i couldnt find a tab for this amazing song so i decided to do it myself 
closely to find the strum pattern

intro/verse/interlude
--------------------------------------------------------------------------|
--12------7--------5------------------------------------------------------|
--9-------4--------4------------------------------------------------------|
--11------6--------6------------------------------------------------------|
--12------7--------7------------------------------------------------------|
--------------------------------------------------------------------------|

chorus
--------------------------------------------------------------------------|
---7-----5----------------------------------------------------------------|
---4-----4----------------------------------------------------------------|
---6-----6----------------------------------------------------------------|
---7-----7----------------------------------------------------------------|
--------------------------------------------------------------------------|

its actually not as hard as i thought it would be haha have fun and plz comment it im 
confident its right. =]



lyrics
Baby girl twist away
When you’re talking to me
I can't breathe
Set some time aside to say
Why don't you stay
Two years later I still I feel like a child

You're the one
I know you are
(Anwser me if you could)
You're the one
(No visitation, they said)
I know you are

This calm feeling ends
When you enter
Not many cigarettes left
And I'll wait... until you ... arrive
Don't want to, I want to
I wouldn't, I would

You're the one
I know you are
(Anwser me if you could)
You're the one
(I didn't, I know it)
I know you are

(Meredith, I'll miss you when you're in Utah)

She's so lovely
            
Submit corrections

comments powered by Disqus
↑ Back to top | Circa Survive Tabs for Baby Girl. Lyrics for acoustic guitar and electric guitar. Tablatures and chords are parodies/interpretations of the original songs. You may use it for private study, scholarship, research or language learning purposes only