» » »

Brainiac Tabs (ver.1)

Artists:  A B C D E F G H I J K L M N O P Q R S T U V W X Y Z # 

Brainiac Tabs (ver.1)

Chevelle
Rating:
3/5 (3 votes)

Hard to play? Try these video lessons and learn fast.
                Band: Chevelle
Tuning:dropped B
updated 9/4 just noticed i could update this so thats why its been awhile I changed the 
and interlude i think its pretty good now. Ive only played a lil over a yr so feel free 
make correction thru comments.
Intro: you can figure strumming pattern here

c|-----------------------------------------------------|
g#|----------------------------------------------------|
e|-----14---10-9-7/-14--10-9-7/--14--10--9--7/-9-10-9--|
b|------x---x--x-x---x--x--x-x----x--x---x--x--x-x--x--|
F#|----12---8--7-5/-12--8--7-5/--12--8---7--5/-7-8--7--|
B|-----------------------------------------------------|

verse
c|-------------------------------------------------------|
g#|------------------------------------------------------|
e|-----14---10-9-7/-14--10-9-7/--14--10--9--7------------|
b|------x---x--x-x---x--x--x-x----x--x---x--x----13------|
F#|----12---8--7-5/-12--8--7-5/--12--8---7--5----13------|
B|-----------------------------------------------13(5x)--|

course
c|--------------------------------------------|
g#|-------------------------------------------|
e|--------------------------------------------|
b|---12-12--12p10p0--12--x10--10-10-10--8/15--|
F#|--12-12--12p10p0--12--x10--10-10-10--8/15--|
B|---12-12--12p10p0--12--x10--10-10-10--8/15--|

interlude and outro
c|----------------------------------------|
g#|---------------------------------------| last 2 chords in interlude are played
e|---------------------------------9/10\9---| second time through
b|------13\12--8\7--1\0--8\7--8--5--------|
F#|-----13\12--8\7--1\0--8\7--8--5-7/8\7----|
B|------13\12--8\7--1\0--8\7--8--5--------|
                             (^  ^strum these chords a few times on interlude palm mute on outro)

| /  slide up
| \  slide down
| h  hammer-on
| p  pull-off
| ~  vibrato
| +  harmonic
            
Hard to play? Try these video lessons and learn fast. | Correct




comments powered by Disqus
↑ Back to top | Tablatures and chords are parodies/interpretations of the original songs. You may use it for private study, scholarship, research or language learning purposes only