» » »

Chevelle, Brainiac Tabs (ver.3)

Artists:  A B C D E F G H I J K L M N O P Q R S T U V W X Y Z # 

Brainiac Tabs (ver.3)

Chevelle Tabs
 Rating:
3.6/5 (7 votes)
Brainiac lessons Tabs too difficult? Try these video lessons and learn fast
                Tune: Drop B


* - play many times
/ - slide
^ - bend
h - hammer on
p - pull off

Intro/Verse - You can play it with slides

1st Part         2nd Part                  3rd Part
---*-------*------*-------*--------*--*-----*------
C#--------------|-------------------------|--------|
G#--------------|-------------------------|--------|
E--14--10--9--7-|-14--10--9--7--9--10--9--|--------|
B---x---x--x--x-|--x---x--x--x--x---x--x--|-13--17-|
F#-12---8--7--5-|-12---8--7--5--7---8--8--|-13--17-|
B---------------|-------------------------|-13--17-|

Chorus

----*-----------*---*-
C#--------------------|
G#--------------------|
E---------------------|
B---12--10--0---10/15-|
F#--12--10--0---10/15-|
B---12--10--0---10/15-|

2nd Verse
    ^
C#----|
G#----|
E---7-|
B-----|
F#----|
B-----|

Bridge

1st Part                                2nd  3rd Part
-----------------------------------*-*-|--*-|--------|
C#-------------------------------------|----|--------|
G#-------------------------------------|----|--------|
E--------------------------------------|----|-9h10p9-|
B---13-12--8-7--3-0--8-7--3-0-3/7--8/5-|--7-|--------|
F#--13-12--8-7--3-0--8-7--3-0-3/7--8/5-|--7-|--------|
B---13-12--8-7--3-0--8-7--3-0-3/7--8/5-|--7-|--------|

Outro

---------------------------
C#-------------------------|
G#-------------------------|
E--------------------------|
B---13-12--8-7--3-0-0--0-0-|
F#--13-12--8-7--3-0-0--0-0-|
B---13-12--8-7--3-0-0--0-0-|


SONG ORDER:

1. Intro/Verse - 
_1st Part x3
_2nd Part x1

2. Intro/Verse -
_1st Part x3
_3rd Part x1

3. Chorus x 4

4. Intro/Verse -
_1st Part x2

5. 2nd Verse x 4 + Intro/Verse 3rd Part

6. Chorus x 4

7. Bridge -
_1st Part + 2nd Part
_1st Part + 3rd Part
_1st Part + 2nd Part
_1st Part

8. Chorus x 4

9. Intro/Verse -
_1st Part x3
_2nd Part x1

10. Outro x 4
1st Guitar plays outro/2nd Guitar can play 2nd Verse
            
Submit corrections

comments powered by Disqus
↑ Back to top | Chevelle Tabs for Brainiac. Lyrics for acoustic guitar and electric guitar. Tablatures and chords are parodies/interpretations of the original songs. You may use it for private study, scholarship, research or language learning purposes only