» » »

Chevelle, Brainiac Bass tabs (ver.1)

Artists:  A B C D E F G H I J K L M N O P Q R S T U V W X Y Z # 

Brainiac Bass tabs (ver.1)

Chevelle Tabs
 Rating:
4/5 (4 votes)
Brainiac lessons Tabs too difficult? Try these video lessons and learn fast
                
Tuning:Drop B (B,F#,B,E)

There are two ways you can do this. 1 is actually doing what the bass does, but it 
boring unless you have the grunge pause effect. 2 is following the guitar which sounds wicked.

Intro 1 (00:00 - 00:16)
B|---1212-1212-1212-1212---1212-1212-1212-1212---1212-1212-1212-1212--------|
F#|---------------------12--------------------12--------------------12------|
B|--------------------------------------------------------------------------|
E|--------------------------------------------------------------------------|

B|-1212-1212-1212-1212--| Repeat 2x
F#|-------------------10|
B|----------------------|
E|----------------------|

Intro 2
B|-------------------------------------------------------------------| Repeat
F#|---12(12x)---8888--7(12x)-----------------------------------------| 3x
B|-------------------------------------------------------------------| Then on
E|-------------------------------------------------------------------| last part

B|----------------------|
F#|-5-7-8(12x)-7(12x)---|
B|----------------------|
E|----------------------|

Verse #1 (00:16 - 00:50)
B|---1212-1212-1212-1212---1212-1212-1212-1212---1212-1212-1212-1212--------|
F#|---------------------12--------------------12--------------------12------|
B|--------------------------------------------------------------------------|
E|--------------------------------------------------------------------------|

B|-1212-1212-1212-1212--| Repeat 6x
F#|-------------------10|
B|----------------------|
E|----------------------|

B|---1212-1212-1212-1212---1212-1212-1212-1212---1212-1212-1212-1212--------|
F#|---------------------12--------------------12--------------------12------|
B|--------------------------------------------------------------------------|
E|--------------------------------------------------------------------------|

B|-1212-1212-1212-1212--| Repeat 2x
F#|-------------------10|
B|----------------------|
E|----------------------|

B|----------------------|
F#|-7-7-7-7-7-7--8b-----|
B|----------------------|
E|----------------------|
Or at 00:31 you can decide to play the intro 2, I find it more creative then doing teh 
thing over and over.

Chorus (00:50 - 01:05)
B|-------057------------|
F#|--555----5--333-3058-| Do this 4x
B|----------------------|
E|----------------------|

01:06 - 01:31)
(Verse) 3x
01:32 -01:47)
(Chorus)4x

Bridge (01:48 - 02:20)
B|------87-30-87-8757-888888055555507777-------| repeat
F#|--56----------------------------------------| 4x
B|---------------------------------------------|
E|---------------------------------------------|
 On last one, just strum the eights and end with 1 five. Then leads into the Chorus again.

(02:20 - 02:53)
Chorus 8x

(2:54 - End)
Bridge 3x
B|------87-30-87-87-0000-|
F#|--56------------------|
B|-----------------------|
E|-----------------------|

| /  slide up
| \  slide down
| h  hammer-on
| p  pull-off
| ~  vibrato
| +  harmonic
| x  Mute note
            
Submit corrections

comments powered by Disqus
↑ Back to top | Chevelle Bass for Brainiac. Lyrics for acoustic guitar and electric guitar. Tablatures and chords are parodies/interpretations of the original songs. You may use it for private study, scholarship, research or language learning purposes only