» » »

Love Fool Tabs (ver.3)

Artists:  A B C D E F G H I J K L M N O P Q R S T U V W X Y Z # 

Love Fool Tabs (ver.3)

Cardigans
Rating:
0/5 (0 votes)

Hard to play? Try these video lessons and learn fast.
                Symbols:

/=slide-up
\=slide-down
b=bend
r=release bend
()=let ring

Tuning:Standard


1st VERSE:

"Dear, I fear we're facing a problem...
e|-------------------------|
B|-------------------------|
G|-------------------------|
D|-------------------------|
A|---------------3--5------|
E|-5--------3-5------------|

...you love me no longer, I know...
e|-----------------------|
B|-----------------------|
G|-----------------------|
D|-----------------------|
A|---------------2--3----|
E|-3--------0-3----------|

...and maybe there is nothing...
e|-------------------------|
B|-------------------------|
G|-------------------------|
D|-------------------------|
A|---------------3--5------|
E|-5--------3-5------------|

...that I can do to make you do"
e|-----------------------|
B|-----------------------|
G|-----------------------|
D|-----------------------|
A|---------------2--3----|
E|-3--------0-3----------|


2nd VERSE:

"Mama tells me I shouldn't bother...
e|----------|
B|-/(12)/13-|
G|----------|
D|----------|
A|----------|
E|----------|

...that I ought to stick to another man
e|----------------------------------|
B|----------------------------------|
G|-----/7------4b5r4b5r4b5r4b5--(2)-|
D|----------------------------------|
A|----------------------------------|
E|----------------------------------|

 a man that surely deserves me
 but I think you do!"


PRECHORUS:

"So I cry, and I pray and I beg..."
e|-------------------------0--|
B|-5---5-5---5-------7---7-0--|
G|-4---4-4---4-5---5-5---5-1--|
D|-5---5-5---5-7---7-7---7-2--|
A|-3---3-4---4-5---5-6---6-2--|
E|-------------------------0--|


1st CHORUS RIFF:
(Listen to the song to figure the ryhtm out)
e|-----14--12--12-----------|
B|-----14--10---9-----------|
G|-14-----------9-----------|
D|-14-----------------------|
A|--------------------------|
E|--------------------------|

"Love me love me
 say that you love me
 fool me fool me
 go on and fool me
 love me love me
 pretend that you love me
 leave me leave me
 just say that you need me"


"So I cried...          ...and I begged for you to"
e|----------------------|---------------------------|
B|----------------------|---------------------7-9---|
G|-9--6-9-6--9-6--9-6---|-7----7----7--6--7-9-------|
D|--------------------9-|----9----9-----------------|
A|----------------------|---------------------------|
E|----------------------|---------------------------|

REPEAT CHORUS

Chorus ends with:
"I don't care 'bout anything but you..."
e|-5-----------------0--|
B|-5-----------------0--|
G|-6------7----------1--|
D|-7------7----------2--|
A|-7------5----------2--|
E|-5-----------------0--|


2nd VERSE , 2nd PRECHORUS and 2nd CHORUS RIFF are the same as 1st ones
            
Hard to play? Try these video lessons and learn fast. | Correct




comments powered by Disqus
↑ Back to top | Tablatures and chords are parodies/interpretations of the original songs. You may use it for private study, scholarship, research or language learning purposes only