» » »

Erase / Rewind Tabs (ver.1)

Artists:  A B C D E F G H I J K L M N O P Q R S T U V W X Y Z # 

Erase / Rewind Tabs (ver.1)

Cardigans
Rating:
0/5 (0 votes)

Hard to play? Try these video lessons and learn fast.
                Band: The Cardigans



Capo 2
All chords relative to capo



|--0----------------------|----------------------|---0---------------------------|
|--0----------------------|----------------------|---0---------3-----------------|
|--0----------------------|----------------------|---0------------2s4--2--4s6--2-|
|--2-x--------0-----------|---------0------------|---2---2-4-5-------------------|
|--2-x----------2-0-2s4-0-|-----------2-0-2s4-0--|---2---------------------------|
|--0-x--0-2-3-------------|---0-2-3--------------|---0---------------------------|

----------------------|
---------3------------|
------------4-2-4s6-2-|
--2-4-5---------------|
----------------------|
----------------------|


|-----------------0----|--(12)------|
|--------3-----0--0----|-------(12)-|
|------0-----0----0----|------------|
|----4-----4------2----|------------|
|-----------------2----|------------|
|-----------------0----|------------|




Em   Bm           A           Em
Hey, what did you hear me say

Bm              A               Em
you know the difference it makes

Bm           A          ->
what did you hear me say


|-----------------0--|--(5)--------|
|-----------------0--|-------------|
|-----------------0--|-------------|
|-------0------0--2--|-------------|
|-----------------2--|-------------|
|---2-3----2-3----0--|-------------|



Em   Bm           A           Em
Yes, I said it's fine before

Bm           A                Em
But I don't think so no more

Bm           A         ->
I said it's fine before


|-----------------0----|
|--------3-----0--0----|
|------0-----0----0----|
|----4-----4------2----|
|-----------------2----|
|-----------------0----|



----------------------|----------------------------|
----------------------|----------------------------|
----------------------|----------------------------|
--------2-2-----------|-----7p5-----5h7-----5-7-5--|->
--------2-2-----------|---7------7-------7---------|
--------0-0-----------|----------------------------|

I've changed my mind




--------------------|----------------2---------|
--------------------|----------------3---------|
--------------------|----------------2---------|
------5h7--5--------|--5p4----4h5----0---------|
---7----------7-----|------5------5------------|
--------------------|--------------------------|
                I take it back




|--0----------------------|----------------------|---0-------------------------|
|--0----------------------|----------------------|---0---------3---------------|
|--0----------------------|----------------------|---0------------4--2--4s6--2-|
|--2-x--------0-----------|---------0------------|---2---2-4-5-----------------|
|--2-x----------2-0-2s4-0-|-----------2-0-2s4-0--|---2-------------------------|
|--0-x--0-2-3-------------|---0-2-3--------------|---0-------------------------|

----------------------|
---------3------------|
------------4-2-4s6-2-|
--2-4-5---------------|
----------------------|
----------------------|


|-----------------0----|--(12)------|
|--------3-----0--0----|-------(12)-|
|------0-----0----0----|------------|
|----4-----4------2----|------------|
|-----------------2----|------------|
|-----------------0----|------------|

Erase and rewind
'cause I've been changing my mind
Erase and rewind
'cause I've been changing my mind
I've changed my mind
            
Hard to play? Try these video lessons and learn fast. | Correct




comments powered by Disqus
↑ Back to top | Tablatures and chords are parodies/interpretations of the original songs. You may use it for private study, scholarship, research or language learning purposes only