» » »

Love Fool Tabs (ver.1)

Artists:  A B C D E F G H I J K L M N O P Q R S T U V W X Y Z # 

Love Fool Tabs (ver.1)

Cardigans
Rating:
4/5 (3 votes)

Hard to play? Try these video lessons and learn fast.
                Love Fool - The Cardigans


This is my first submitted tab but I think it’s accurate.
All of the notes are here and if you can play the intro 
throughout the verse that would be ideal. Also, it still
Sounds okay if you don’t play the bass notes on some of the 
Chords. 

If anyone can improve the fingerings on the chords let me know.
A little tricky in places but it works if you are playing solo acoustic. 

Tuning : E A D G B E     Time Signature : 4/4


INTRO   (1)

   Am
   |     |     |     |        |     |     |     |
|--8-----8--------------8--|-----8-----8-----8--------|
|--10----10-------------10-|-----10----10----10-------|
|--9-----------------------|--------------------------|
|--7-----------------------|--------------------------|
|--0-----------------------|--------------------------|
|--------------------------|--------------------------|
  
VERSE   (2)
 
Dear I fear were facing a    
  Am                          Dm           
   |     |     |     |        |     |     |     |
|--------------------------|-----------------13-------|
|--------------------------|----------------10--------|
|--------------------------|---------------10---------|
|----------------------(0)-|--------------12----------|
|--0--------0-----3-----5--|--------------------------|
|--------------------------|--------------------------|
   
You love me no longer         

   |     |     |     |        |     |     |     |
|--------------------------|-----------------12-------| 
|--------------------------|----------------12--------|
|--------------------------|---------------9----------|
|--------------------------|--------------10----------|
|-----------------2-----3--|--------------------------|
|--3--------3--------------|--------------------------|

**Use your pinky on the top 12s

Maybe there is nothing

   |     |     |     |        |     |     |     |
|--------------------------|-----------------10-------|
|--------------------------|----------------10--------|
|--------------------------|---------------10---------|
|----------------------(0)-|--------------12----------|
|--0--------0-----3-----5--|--------------------------|
|--------------------------|--------------------------|
   
To make you do

   |     |     |     |        |     |     |     |
|--------------------------|-----------------12-------|
|--------------------------|----------------12--------|
|--------------------------|---------------9----------|
|--------------------------|--------------10----------|
|-----------------2-----3--|--------------------------|
|--3--------3--------------|--------------------------|
   
BRIDGE (3)

   |     |     |     |        |     |     |     |  
|--------------------------|--7--------7-----6-----6--|
|--------------------------|--8--------8-----8-----8--|
|--------------------------|--9--------9-----9-----9--|
|--------------------------|--------------------------|
|-----------------2--------|--------------------------|
|--3--------3--------------|--8--------8-----9-----9--|
   

So I cry, I pray and I beg
   |     |     |     |        |     |     |     |  
|--5--------5-----5-----5--|--7-----------------------|
|--6--------6-----7-----7--|--9-----------------------|
|--7--------7-----8-----8--|--7-----------------------|
|--------------------------|--9-----------------------|
|--5--------5-----6-----6--|--7-----------------------|
|--------------------------|--------------------------|
   
CHORUS (4)

Love me, love me
   |     |     |     |        |     |     |     |   
|--9-----9-----9-----9-----|--9-----9-----9-----9-----|  
|--10----10----10----10----|--10----10----10----10----|
|--9-----9-----9-----9-----|--9-----9-----9-----9-----|
|--------------------------|--------------------------|
|--0-----------------------|------------7----------7--|
|--------9-----10-------7--|-----7--10-(0)--------(0)-|

**Listen to the song for rhythm on top strings

Fool me, fool me
   |     |     |     |        |     |     |     |   
|--9-----9-----9-----9-----|--9-----9-----9-----9-----|  
|--10----10----10----10----|--10----10----10----10----|
|--9-----9-----9-----9-----|--9-----9-----9-----9-----|
|--------------------------|--------------------------|
|--0-----------------------|------------7----------7--|
|--------9-----10-------7--|-----7--10-(0)--------(0)-|

And I cry
   |     |     |     |        |     |     |     |   
|-----9--------------------|------9-------------------|
|----5---------------------|-----7--------------------|
|---6----------------------|----7---------------------|
|--7-----------------------|---7----------------------|
|--------------------------|--9-----------------------|
|--------------------------|--------------------------|

And I beg for you to
   |     |     |     |        |     |     |     |   
|------9-------------------|------9-------------------|
|-----7--------------------|-----9--------------------|
|----7---------------------|----6---------------------|
|---9----------------------|---7----------------------|
|--7-----------------------|--------------------------|
|--------------------------|--5-----------------------|

Love me, love me
   |     |     |     |        |     |     |     |   
|--9-----9-----9-----9-----|--9-----9-----9-----9-----|  
|--10----10----10----10----|--10----10----10----10----|
|--9-----9-----9-----9-----|--9-----9-----9-----9-----|
|--------------------------|--------------------------|
|--0-----------------------|------------7----------7--|
|--------9-----10-------7--|-----7--10-(0)--------(0)-|

Fool me, fool me
   |     |     |     |        |     |     |     |   
|--9-----9-----9-----9-----|--9-----9-----9-----9-----|  
|--10----10----10----10----|--10----10----10----10----|
|--9-----9-----9-----9-----|--9-----9-----9-----9-----|
|--------------------------|--------------------------|
|--0-----------------------|------------7----------7--|
|--------9-----10-------7--|-----7--10-(0)--------(0)-|


BRIDGE #2 (5) 

I can't care 'bout anything but you
  |     |     |     |        |     |     |     |   
|----5-----------5---------|------------(4)---(7)-----|
|---5-----------6----------|----5-(7)-----------------|
|--6-----------7-----------|---5----------------------|
|-7-----------7------------|--6-----------------------|
|--------------------------|-7------------------------|
|--------------------------|--------------------------|

END CHORUS

   |     |     |     |        |     |     |     |   
|--9-----9-----9-----9-----|--9-----9-----9-----9-----|  
|--10----10----10----10----|--10----10----9-----9-----|
|--9-----9-----9-----9-----|--9-----9-----9-----9-----|
|--------------------------|--------------------------|
|--0-----------------------|------------7----------7--|
|--------9-----10-------7--|-----7--10-(0)--------(0)-|

END BRIDGE

I can't care 'bout anything but you
  |     |     |     |        |     |     |     |   
|----5-----------5---------|------------(4)---(7)-----|.|
|---5-----------6----------|----5-(7)-----------------|.|
|--6-----------7-----------|---5----------------------|.|
|-7-----------7------------|--6-----------------------|.|
|--------------------------|-7------------------------|.|
|--------------------------|--------------------------|.|


Alternate fingering for chorus
   |     |     |     |     |        |     |     |     |   
|--9-----14----9-----9-----|--9-----14----9-----9-----|  
|--10----14----10----9-----|--10----14----10----9-----|
|--9-----14----9-----9-----|--9-----14----9-----9-----|
|--------------------------|--------------------------|
|--------------------------|--------------------------|
|--------------------------|--------------------------|
            
Hard to play? Try these video lessons and learn fast. | Correct




comments powered by Disqus
↑ Back to top | Tablatures and chords are parodies/interpretations of the original songs. You may use it for private study, scholarship, research or language learning purposes only