» » »

Love Fool Bass tabs (ver.1)

Artists:  A B C D E F G H I J K L M N O P Q R S T U V W X Y Z # 

Love Fool Bass tabs (ver.1)

Cardigans
Rating:
5/5 (7 votes)

Hard to play? Try these video lessons and learn fast.
                Verse  
G|-------------------|----------------------I
D|-------------------|----------------------I
A|--0--0---3---5-----|---------2--3---------I
E|-------------------|--3--3----------------I   x5

 
Pre-Chorus 
G|----------------------------------------------I    
D|----------------------------1-1-2-------------I
A|---------2---3-3-4-4-5-5----------------------I
E|--3--3----------------------------------------I
 
Chorus 
G|--------------------------------------I   
D|--------------------------------------I
A|-----4--5----------5--7---------------I
E|--5----------7--7---------------------I  x4
Love me Love me, say that you love me

G|-----------------------------------------------------------------|
D|------------------------9----------------------------------------|
A|--9-----9-----------9----9---7-----7-----------------9--11-------|
E|-----9------9----7--------------7-----7--7--5--5-----------------|               
So I cried, and I plead for you to

G|------------------I  
D|------------------I
A|------5---7-------I
E|--5---------------I        
I can't care about anything but you
            
Hard to play? Try these video lessons and learn fast. | Correct




comments powered by Disqus
↑ Back to top | Tablatures and chords are parodies/interpretations of the original songs. You may use it for private study, scholarship, research or language learning purposes only