>
 >
Heartwork 3

Heartwork 3 Bass Tabs

Carcass - Heartwork 3 chords, tabs, tablatures, lyrics

Guitar lessons | Add/correct | Request | Top 50 tabs Artists:  A B C D E F G H I J K L M N O P Q R S T U V W X Y Z 0-9

Heartwork 3 Bass Tabs – Carcass

CD, Sheet music, Poster

Do you like Heartwork 3? Share with your friends now
Bass TabsBass Tabs v2Bass Tabs v3TabsTabs v2Tabs v3
-------------------------------------------------------------------------------
			     Heartwork - Carcass
-----------------------------------------------------------------------------


Tuning: B E A D

[A] Intro: (0:00)

G|-------------------------------------------------------------------------|
D|-------------------------------------------------------------------------|
A|-------------------------------------------------------------------------|
E|-------------------------------------------------------------------------|

G|-------------------------------------------------------------------------|
D|-------------------------------------------------------------------------|
A|----------------------------------------------------------------19\------|
E|-------------------------------------------------------------------------|

G|-------------------------------------------------------------------------|
D|-------------------------------------------------------------------------|
A|-------------------------------------------------------------------------|
E|--0--3---3--3--3----3-----0--0---0--5--4---4-----------------------------|

G|-------------------------------------------------------------------------|
D|-----------------------9----9---10---10----12---12---10---10---9----9---7|
A|-------------7----7------------------------------------------------------|
E|---5----5----------------------------------------------------------------|

G|-------------------------------------------------------------------------|
D|-------------------------------------------------------------------------|
A|--0--2---2--2--2---0---1--1---1--5--4---4--------------------------------|
E|-------------------------------------------------------------------------|

G|------------------------------------------------------------------------|
D|--------------------9----9---10---10----12---12---10---10---9----9---10\|
A|------------7----7------------------------------------------------------|
E|--5----5----------------------------------------------------------------|

G|---------------------------------------------------------------------------|
D|---------------------------------------------------------------------------|
A|---------------------------------------------------------------------------|
E|-0--3----3--3---3----3---0--0---0--5--4---4--------------------------------|

G|-------------------------------------------------------------------------|
D|--------------------9----9---10---10----12---12---10---10---9----9---7---|
A|------------7----7-------------------------------------------------------|
E|--5----5-----------------------------------------------------------------|

G|-------------------------------------------------------------------------|
D|-------------------------------------------------------------------------|
A|-------------------------------------------------------------------------|
E|--0--2---2--2--2---2----0--1--1---1--5--4---4----------------------------|

[B] (0:20, 2:12)

G|-------------------------------------------------------------------------|
D|-------------------------------------------------------------------------|
A|----0-----------------0--------------------------------------------------|
E|---------------------------------------3---------0-----4-----------------|

G|-------------------------------------------------------------------------|
D|---------9--10---10/12--10--9-10-9--7------------------------------------|
A|-----7-------------------------------------2-----------------------------|
E|-5-------------------------------------------------1------4--------------|

[C] 1st Solo (0:30)

G|-------------------------------------------------------------------------|
D|-------------------------------------------------------------------------|
A|-----0--------------------3----------------------------------------------|
E|---------------------------------------------1---------------------0-----|

G|------------------------------------------------------------------------------------|
D|------------------------------------------------------------------------------------|
A|-----0----------------0-----2----3--------------------------------------------------|
E|----------------------------------------------------------1---------3----1-------0--|

G|------------------------------------------------------------------------------------------|
D|------------------------------------------------------------------------------------------|
A|------------------------------------------------------------------------------------------|
E|----0--------------0---2-----3---------------------8------------/10------8-----7------12--|

[D] (0:51, 1:31)

G|-------------------------------------------------------------------------|
D|-------------------------------------------------------------------------|
A|--0---0-0--0--0---0--0-------0--1--1--4--4--3----------------------------|
E|-----------------------------------------------3--2----------------------|

G|----------------------------------------------------------------------------|
D|----------------------------------------------------------------------------|
A|------------6---------5-----------------------------------------------------|
E|--5--5-5-5--------5-------5-------------------------------------------------|

G|----------------------------------------------------------------------------|
D|----------------------------------------------------------------------------|
A|---0---0-0--0--0---0-0--0--0--0-0---0--1--1--4--4---------------------6--5--|
E|-----------------------------------------------------3--2/5--5-5--5-----5---|

G|-------------------------------------------------------------------------|
D|-------------------------------------------------------------------------|
A|--1-1--1---4--2---3--5--6--0---------------------------------------------|
E|-------------------------------------------------------------------------|

[F] Chorus (1:21, 2:01, 4:00)

G|---------------------------------------------------------------------------------------------|
D|---------------------------------------------------------------------------------------------|
A|----0------3-------------2--------5------------0-----------3----------2--------5---------11--|
E|----------------1----------------------0-----------------------1-----------------------0-----|

G|-------------------------------------------------------------------------|
D|-------------------------------------------------------------------------|
A|-------------------------------------------------------------------------|
E|---5-------------------4----------------3------------2-----------3------4|

G|---------------------------------------------------------------------------------------|
D|---------------------------------------------------------------------------------------|
A|---------------------------------------------------------------------------------------|
E|----5------------7---5-----4----------6----4----3------------5---3---2---2------3---4--|

G|-------------------------------------------------------------------------|
D|-------------------------------------------------------------------------|
A|-------------------------------------------------------------------------|
E|----5-----------------4-----------------3---------------------2------4---|

[H] (2:39)

G|-------------------------------------------------------------------------|
D|-------------------------------------------------------------------------|
A|---------------------------------3--3------------------------------------|
E|----5--5---1--1----3--3---1--1---------1--1--3--3---1--1-----------------|

G|-------------------------------------------------------------------------|
D|-------------------------------------------------------------------------|
A|------------------------------3--3---------------------------------------|
E|----5--5---1--1---3--3--1--1--------1--1---4--4--3--4--------------------|

G|-------------------------------------------------------------------------|
D|-------------------------------------------------------------------------|
A|---------------------------------3--3------------------------------------|
E|----5--5---1--1----3--3---1--1---------1--1--3--3---1--1-----------------|

G|-------------------------------------------------------------------------|
D|-------------------------------------------------------------------------|
A|------------------------------3--3---------------------------------------|
E|----5--5---1--1---3--3--1--1--------1--1---4--4--3--4--------------------|


G|-------------------------------------------------------------------------|
D|-------------------------------------------------------------------------|
A|----------------------------3--3-----------------------------------------|
E|---5--5--1--1---3--3--1--1-------1--1---3--3--1--1-----------------------|

G|-------------------------------------------------------------------------|
D|-------------------------------------------------------------------------|
A|----------------------------3--3-----------------------------------------|
E|---5--5--1--1---3--3--1--1--------1--1---4--4--3--4----------------------|

G|-------------------------------------------------------------------------|
D|-------------------------------------------------------------------------|
A|----------------------------3--3-----------------------------------------|
E|---5--5--1--1---3--3--1--1-------1--1---3--3--1--1-----------------------|

G|-------------------------------------------------------------------------|
D|-------------------------------------------------------------------------|
A|--------1-------2------3-------------------------------------------------|
E|---0-------1-------2-----------------------------------------------------|

G|-------------------------------------------------------------------------|
D|----------------------------------------------12----14---15---14--12--10-|
A|------------------------------------------7------------------------------|
E|---5----5----------------5----------5------------------------------------|

[J] (3:23)

G|-------------------------------------------------------------------------|
D|-----------------9--9----10--10----12--12----10--10--9--9--10\-----------|
A|---------7--7------------------------------------------------------------|
E|--5--5-------------------------------------------------------------------|

G|-------------------------------------------------------------------------|
D|-------------------------------------------------------------------------|
A|-------------------------------------------------------------------------|
E|--0---3----3---3--3--3---0--0---0---5--4---4-----------------------------|


G|-------------------------------------------------------------------------|
D|-----------------9--9---10--10---12--12---10--10---9--9--7---------------|
A|---------7--7------------------------------------------------------------|
E|--5--5-------------------------------------------------------------------|


G|---------------------------------------------------------------------------|
D|---------------------------------------------------------------------------|
A|------2---2--2--2---0------------------------------------------------------|
E|--0---------------------1--1---1-----5---4---4-----------------------------|

G|-------------------------------------------------------------------------|
D|-----------------9--9---10--10---12--12---10--10---9--9--7---------------|
A|---------7--7------------------------------------------------------------|
E|--5--5-------------------------------------------------------------------|

G|-------------------------------------------------------------------------|
D|-------------------------------------------------------------------------|
A|---2---------------------------------------------------------------------|
E|----------------1-------4------------------------------------------------|

[K] 2nd solo

G|-------------------------------------------------------------------------|
D|-------------------------------------------------------------------------|
A|---0-------------0---2--3-----------------8---------/10-----8-----7------|
E|----------------------------------------------------------------------12\|

G|-------------------------------------------------------------------------|
D|-------------------------------------------------------------------------|
A|---------------------6------------5--------------------------------------|
E|---5----5--5----5------------5-----------5-------------------------------|

G|-------------------------------------------------------------------------|
D|-------------------------------------------------------------------------|
A|---18\6---7---8----9----10----11-----------------------------------------|
E|-------------------------------------------------------------------------|

G|-------------------------------------------------------------------------|
D|-------------------------------------------------------------------------|
A|---------------------------------3--3------------------------------------|
E|----5--5---1--1----3--3---1--1---------1--1--3--3---1--1-----------------|

G|-------------------------------------------------------------------------|
D|-------------------------------------------------------------------------|
A|------------------------------3--3---------------------------------------|
E|----5--5---1--1---3--3--1--1--------1--1---4--4--3--4--------------------|

G|-------------------------------------------------------------------------|
D|-------------------------------------------------------------------------|
A|---------------------------------3--3-------------------------1---2----3-|
E|----5--5---1--1----3--3---1--1---------1--1--3--3---1--1---0----1---2----|

Here's the tab for now, there is definetaley to have changes made to this but for now you 
can learn small bits and pieces. Hope it's an Ok tab.



| /  slide up
| \  slide down
| h  hammer-on
| p  pull-off
| ~  vibrato
| +  harmonic
| x  Mute note
============================================================================





Comments


Popular Carcass tabs & chords
No Love Lost 2 Bass Tabs
Crepitating Bowel Erosion Tabs
Death Certificate (Solo) Tabs
Embodiment Tabs
Exhume To Consume Tabs
Forensic Clinicism Tabs
Pedegree Butchery Tabs
Reek Of Putrefaction 2 Tabs
Room 101 Tabs
This Mortal Coil 1 Tabs


Song lyrics



↑ Back to top | Tablatures and chords are parodies/interpretations of the original songs. You may use it for private study, scholarship, research or language learning purposes only
© 2014 AZChords.com Contact us | Privacy policy | DMCA | Add/correct tabs | Request tabs | Top 50 tabs