» » »

Heart Work Tabs (ver.1)

Artists:  A B C D E F G H I J K L M N O P Q R S T U V W X Y Z # 

Heart Work Tabs (ver.1)

Carcass
Rating:
0/5 (0 votes)

Hard to play? Try these video lessons and learn fast.
                Heartwork
(Tune down 2.5 steps to B)


If this isnt good enough..they do have a Carcass TAB book out now.
Have fun, and good luck.

Intro:
 Rhy. Fig. 1 (2 Gtrs)
|-------------------------|-----------------------------|
|-------------------------|-----------------------------|
|*-----5555-7777--9-9-9-9-|-10101010--9-9-9-9-7777--9~~-|
|*-----7777-9999-10101010-|-12121212-10101010-9999-10~~-|
|-0000--------------------|-----------------------------|
|-------------------------|-----------------------------|
  ssss ssss ssss  s s s s    s s s s  s s s s ssss q

|-----------------|-------------------|
|-----------------|-------------------|
|-----------------|-------------------|
|-5-5---5-5-5---5-|-2-2---2-6-6---6---|
|-5-5---5-5-5---5-|-2-2---2-6-6---6---|
|-3-3---3-3-3---3-|-0-0---0-4-4---4---|
  e q   e e q   e   e q   e e q   e

|-------------------------|-----------------------------|
|-------------------------|-----------------------------|
|------5555-7777--9-9-9-9-|-10101010--9-9-9-9-7777-5~~--|
|------7777-9999-10101010-|-12121212-10101010-9999-7~~--|
|-0000--------------------|-----------------------------|
|-------------------------|-----------------------------|
  ssss ssss ssss  s s s s    s s s s  s s s s ssss q

                     (End Rhy. Fig. 1)
|-----------------|-------------------|
|-----------------|-------------------|
|-4-4---4-4-4---4-|------------------*|
|-4-4---4-4-4---4-|-3-3---3-6-6---6--*|
|-2-2---2-2-2---2-|-3-3---3-6-6---6---|
|-----------------|-1-1---1-4-4---4---|
  e q   e e q   e   e q   e e q   e

 Rhy. Fig. 2 (2 Gtrs)
|--------------|---------------|--------------|-------------|
|--------------|---------------|--------------|-------------|
|----5--7---9--|-10---9--7---9-|--------------|-------------|
|----7--9--10--|-12--10--9--10-|-5------------|-2-----6-----|
|-0------------|---------------|-5------------|-2-----6-----|
|--------------|---------------|-3------------|-0-----4-----|
  q  q  q   q     q   q  q   q   w              h     h

                                               (End Rhy. Fig. 2)
|--------------|-------------------|--------------|-------------|
|--------------|-------------------|--------------|-------------|
|----5--7---9--|-10---9--7h-9p7-5--|-4------------|-------------|
|----7--9--10--|-12--10--9h10p9-7--|-4------------|-3-----6-----|
|-0------------|-------------------|-2------------|-3-----6-----|
|--------------|-------------------|--------------|-1-----4-----|
  q  q  q   q     q   q  s  s e q    w              h     h

Rhythm under Steer's solo:
|-----------|-----------|-----------|----------|
|-----------|-----------|-----------|----------|
|*----------|-----------|-10--------|-9--------|
|*-7--------|-10--------|-10--------|-9--------|
|--7--------|-10-----10-|--8--------|-7--------|
|--5--------|--8------8-|--8--------|----------|
   w           h.     q    w          w

|----------|-----------|---------------|----------|
|----------|-----------|---------------|----------|
|----------|-----------|-10---12--10---|-9-------*|
|-7--------|-10--------|-10---12--10---|-9-------*|
|-7----7-7-|-10--------|--8---10---8---|-7--------|
|-5----5-5-|--8--------|--8---10---8---|-7--------|
  h.   e e    w           h    q   q     w

On the repeat, this last measure is probably a 3rd string, 4fr. Harm
bent up and released repeatedly with the bar.  I play it as an artificial
harmonic at the 9th fret on the 3rd string (pitch B).

 Rhy. Fig. 4                      play 3x
|---------------------|------------------|
|---------------------|------------------|
|*--------------------|-----------------*|
|*-2------2------2----|-2/3-3/6-6\5-5\2-*|
|--0-0000-0-0000-0-00-|-0/1-1/4-4\3-3\0--|
|---------------------|------------------|
   e ssss e ssss e ss   e e e e e e e e

                      (End Rhy. Fig. 4)
|--------------------|-----------------| (really PM this last bar)
|--------------------|-----------------|
|--------6------5----|-----------------|
|-2------6------5----|-----------------|
|-0-0000-4-0000-3-00-|-0-4-3-1-4-3-0-1-|
|--------------------|-----------------|
  e ssss e ssss e ss   e e e e e e e e

 (^^^Mike suggests A5 Eb5 D5 for this first measure here...)

1st verse w/Rhy. Fig. 4 (2x)

Chorus:
 Rhy. Fig. 5                 (End Rhy. Fig. 5)
|-----------|----------|-----------|----------|
|-----------|----------|-----------|----------|
|-2------5--|----------|-4------7--|----------|
|-2------5--|-3--------|-4------7--|-2--------|
|-0------3--|-3--------|-2------5--|-2--------|
|-----------|-1--------|-----------|-0--------|
  h.     q    w          h.     q    w

w/Rhy. Fig. 5 (1st three measures)
|------------------|------------------|------------------|
|------------------|------------------|------------------|
|--------------5---|------------------|--------------5---|
|-7-----5h7------7-|-7-----7----------|-7-----5h7------7-|
|---000-----00-----|---000---7-0-0-0--|---000-----00-----|
|------------------|------------------|------------------|
  e sse e e ss e e   e sse e e e e e    e sse e e ss e e

Both guitars then play the E5 (held for half a measure), followed by
either a 12th fret harmonic on the 1st string, or an AH at the 9th fret
on the 3rd string (your choice).

Then play the first three measures of Rhy. Fig. 4, then this:
|------------------|
|------------------|
|------------------|
|--------------3/6-|
|-0-000-000-00-1/4-|
|------------------|
  e sse sse ss e e

2nd verse, chorus as before
Bridge w/Rhy. Fig. 2

Interlude:
|-------------------------|-------------------------|
|-------------------------|-------------------------|
|*---------11-12-11-------|----------11-12-11-------|
|*---12-14----------14----|----12-14----------14-12-|
|-12-------------------12-|-11----------------------|
|-------------------------|-------------------------|
                              _____________________ ________________
                             |1.2.                 |3.
|----------------------------|---------------------|----------------|
|----------13-12h13p12-------|---------------------|----------------|
|----------------------------|--------------------*|----------------|
|----12-14-------------14-12-|------9----9--------*|----------------|
|-10-------------------------|-9-12---12---12-10-9-|-8~~~~----------|
|----------------------------|---------------------|----------------|

Rhythm underneath:
|------------------------------------------------|
|------------------------------------------------|
|9---4---5---7---9---4---5--/7\2---9---4---5-----|
|----------------------------------------------4-|
|7---2---3---5---7---2---3--/5\0---7---2---3---4-|
|----------------------------------------------2-|

Then this heavy section, which is not exactly how they play it,
but I think it sounds pretty close... (looks like Jeff's playing
something similar in the video anyway)

                                        4th ending
--------------------------------3/7--|2-3-4-5-6-7---
210-000-210-000-210-000-210-000------|2-3-4-5-6-7---
--------------------------------1/5--|0-1-2-3-4-5---

Then another variation (after repeating the above 2 riffs) of the
intro, all tremoloed

|-------------------------|-----------------------------|
|-------------------------|-----------------------------|
|------5555-7777--9-9-9-9-|------7777--9-9-9-9-10101010-|
|------7777-9999-10101010-|------9999-10101010-12121212-|
|-0000--------------------|-0000------------------------|
|-------------------------|-----------------------------|
  ssss ssss ssss  s s s s   ssss ssss  s s s s  s s s s

|---------------------------------|---------------------------------|
|---------------------------------|---------------------------------|
|-------9-9-9-9-10101010-12121212-|-14141414-12121212-10101010-12~~-|
|------10101010-12121212-14141414-|-15151515-14141414-12121212-14~~-|
|-0000----------------------------|---------------------------------|
|---------------------------------|---------------------------------|
  ssss  s s s s  s s s s  s s s s    s s s s  s s s s  s s s s  q

Then they play the intro again, as well the solo, and then the
verse, but then play this riff to lead into the chorus (outro)

-8-9-10-11-12-13--
-8-9-10-11-12-13--
-6-7--8--9-10-11--
------------------

Finally, the heavy riff from the middle ends the song!!


Opening riff:  (trem picked as above)
|-----------------------------|  (other gtr up a diatonic 3rd)
|-----------------------------|
|-----------------------------|
|-------9--10--12--10--9--10--|
|----7------------------------|
|-5---------------------------|

Interlude:
|-----------------|-----------------|-------8-7h8p7-------|---------------|
|-----5h7h8p7p5---|-----5h7h8p7p5---|-----8---------8-----|---------------|
|---5-----------5-|---5-----------5-|---7-------------7---|-------------6-|
|-7---------------|-6---------------|-5-----------------5-|-4---------6---|
|-----------------|-----------------|---------------------|--4------4-----|
|-----------------|-----------------|---------------------|---5-2-5-------|

Solos: (there is a harmony part with Steer's first lead)

First solo:
 s                             hp                     h
|----------------------------------------------------------------
|/10-8-6-5~-5-5-6~-3-6-5~----------------------------------------
|-------------------------2--5-454-------------------------------
|----------------------------------5-4-2-------------------------
|----------------------------------------5-4-2-------2-45-4-2----
|----------------------------------------------5-4-5----------0--

              b               b
 ----------------------3------------------8-7-5------------------
 -------3-5-6~-8^~-5-6---6-5-3-5^-3-------------8-7-5------------
 2~-4-5-----------------------------5-4~--------------7-6-4------
 -----------------------------------------------------------7-6-4
 ----------------------------------------------------------------
 ----------------------------------------------------------------
                                                ah
 7-5-3-------------------5-3-2----------------------|
 ------7-5-3-------------------5-3-2----------------|
 ------------6-4-2-------------------4-2-1----------|
 ------------------6-4-2-------------------4-2-1----|
 ------------------------------------------------2~-|
 ---------------------------------------------------|

Second solo:
|20-18-16-15~-16-18-20-18-16---------------------------|
|----------------------------20-18-16-15-16-15---------|
|----------------------------------------------17-16~--|
|------------------------------------------------------|
|------------------------------------------------------|
|------------------------------------------------------|

Third solo:
 b                     bb           b
|-------------------------------------------------------------
|15^-15-13-12-13-12~-13^^-13-12--------------12----12-13-12-13
|-------------------------------13-14^-13-14----14------------
|-------------------------------------------------------------
|-------------------------------------------------------------
|-------------------------------------------------------------

 ---13-15^-13~-----19-17-15-----15-17^-^-15-17~-|
 15-------------17----------17~-----------------|
 -----------------------------------------------|
 -----------------------------------------------|
 -----------------------------------------------|
 -----------------------------------------------|
            
Hard to play? Try these video lessons and learn fast. | Correct




comments powered by Disqus
↑ Back to top | Tablatures and chords are parodies/interpretations of the original songs. You may use it for private study, scholarship, research or language learning purposes only