>
 >
Heartwork

Heartwork Bass Tabs

Carcass - Heartwork chords, tabs, tablatures, lyrics

Guitar lessons | Add/correct | Request | Top 50 tabs Artists:  A B C D E F G H I J K L M N O P Q R S T U V W X Y Z 0-9

Heartwork Bass Tabs – Carcass

CD, Sheet music, Poster

Do you like Heartwork? Share with your friends now
Bass TabsBass Tabs v2Bass Tabs v3TabsTabs v2Tabs v3
As with my other tabs, i was out of tune, so the whole tihng's a bit messed 
up.
This should improve, but it's still a bit iffy. Down to BEAD for this.

Main Riff:
|---------------------------------------------------|
|-----------9999-10101010-12121212-10101010-9999-10-|
|-0000-7777-----------------------------------------|
|---------------------------------------------------|

|----------------------------------|
|----------------------------------|
|----------------------------------|
|-3-3---3-3-3---3--0-0---0-4-4---4-|

(first bit again, then)
|----------------------------------|
|----------------------------------|
|-2-2---2-2-2---2------------------|
|------------------1-1---1-4-4---4-|

Mellow bit:
|---------------------------------------------------------|
|--------------------------9--10--12--10--7h10h9----------|
|-0~~~---------------0--7-------------------------2-------|
|----------3---0-4------------------------------------1-4-|

Solo:
|---------------------|
|------2~~~-----------|
|-0~~~------3~~~------|
|----------------1~~~-|

(thoes are the root notes, there's a few variations)

Verse:
/=============x3===============\
|-------------------------------|-------------------------------|
|-------------------------------|-------------------------------|
|-000-000-000---0-0-1-1-4-4-3-3-|-0-0000-0-0000-0-00------R-----|
|-------------------------------|-------------------------------|

Chorus (let notes ring out):
|-------------------------|
|-------------------------|
|-0~---3~------2~---5~----|
|---------1~-----------0~-|

Second mellow bit:
|---------------------|
|---------------------|
|-0~~~----------------|
|------4~~~-3~~~-2~~~-|

Heavy bit:
/===x14===\
|----------|-------------|
|----------|-------------|
|----------|-------------|
|-21000000-|-0-1-2-3-4-5-|

Then second mellow bit again, then there's a bit i'm not sure of, then back
to the beginning, but with a shorter solo.

After last verse, just before last chorus:
|-------------|
|-------------|
|-1-2-3-4-5-6-|
|-------------|

Then the heavy bit again.

I've got a couple of riffs from Arebit Macht Fleisch, i might post them 
later.





Comments


Popular Carcass tabs & chords
Heartwork 3 Bass Tabs
Blind Bleeding The Blind Tabs
Cross My Heart Tabs
Embodiment 1 Tabs
Ever Increasing Circles Tabs
Ever Increasing Circles 1 Tabs
Genital Grinder Ii Tabs
Impropagation Tabs
Oxidised Razor Masticator Tabs
Pedigree Butchery 1 Tabs


Song lyrics



↑ Back to top | Tablatures and chords are parodies/interpretations of the original songs. You may use it for private study, scholarship, research or language learning purposes only
© 2014 AZChords.com Contact us | Privacy policy | DMCA | Add/correct tabs | Request tabs | Top 50 tabs