>
 >
Heartwork

Heartwork Guitar Tabs

Carcass - Heartwork chords, tabs, tablatures, lyrics

Guitar lessons | Add/correct | Request | Top 50 tabs Artists:  A B C D E F G H I J K L M N O P Q R S T U V W X Y Z 0-9

Heartwork Guitar Tabs – Carcass

CD, Sheet music, Poster

Do you like Heartwork? Share with your friends now
Bass TabsBass Tabs v2Bass Tabs v3TabsTabs v2Tabs v3
Band: Carcass
Song Heartwork
Tuning: Drop down 2 and 1/2 steps


some people out so..Thank Glenn, Juha-Pekka, and Mike for this.  Here you go.

Intro:

 Rhy. Fig. 1 (2 Gtrs)

|-------------------------|-----------------------------|
|-------------------------|-----------------------------|
|*----------7777--9-9-9-9-|-10101010--9-9-9-9-7777--9~~-|
|*----------9999-10101010-|-12121212-10101010-9999-10~~-|
|------7777---------------|-----------------------------|
|-5555--------------------|-----------------------------|
  ssss ssss ssss  s s s s    s s s s  s s s s ssss q


|-----------------|-------------------|
|-----------------|-------------------|
|-----------------|-------------------|
|-5-5---5-5-5---5-|-2-2---2-6-6---6---|
|-5-5---5-5-5---5-|-2-2---2-6-6---6---|
|-3-3---3-3-3---3-|-0-0---0-4-4---4---|
  e q   e e q   e   e q   e e q   e


|-------------------------|-----------------------------|
|-------------------------|-----------------------------|
|-----------7777--9-9-9-9-|-10101010--9-9-9-9-7777-5~~--|
|-----------9999-10101010-|-12121212-10101010-9999-7~~--|
|------7777---------------|-----------------------------|
|-5555--------------------|-----------------------------|

  ssss ssss ssss  s s s s    s s s s  s s s s ssss q

                     (End Rhy. Fig. 1)
|-----------------|-------------------|
|-----------------|-------------------|
|-4-4---4-4-4---4-|------------------*|
|-4-4---4-4-4---4-|-3-3---3-6-6---6--*|
|-2-2---2-2-2---2-|-3-3---3-6-6---6---|
|-----------------|-1-1---1-4-4---4---|
  e q   e e q   e   e q   e e q   e

 Rhy. Fig. 2 (2 Gtrs):

|--------------|---------------|--------------|-------------|
|--------------|---------------|--------------|-------------|
|-5-----7---9--|-10---9--7---9-|-4------------|-------4-----|
|----7---------|---------------|--------------|-5-----------|
|-3------------|---------------|-2------------|-------2-----|
|--------------|---------------|--------------|-3-----------|


|--------------|---------------|--------------|-------------|
|--------------|---------------|--------------|-------------|
|--------------|---------------|--------------|-------------|
|-------9--10--|-12--10--9--10-|-5------------|-------6-----|
|-7--7---------|---------------|--------------|-------------|
|-5------------|---------------|-3------------|-0-----4-----|
  q  q  q   q     q   q  q   q   w              h     h

|--------------|------------------|--------------|-------------|
|--------------|------------------|--------------|-------------|
|-5-----7---9--|-10---9--7h9p7--5-|-7------------|-------------|
|----7---------|------------------|--------------|-7-----9-----|
|-3------------|------------------|-5------------|-------------|
|--------------|------------------|--------------|-5-----7-----|


|--------------|------------------|--------------|-------------|
|--------------|------------------|--------------|-------------|
|--------------|------------------|-4------------|-------------|
|-------9--10--|-12--10--9h10p9-7-|--------------|-3-----6-----|
|-7--7---------|------------------|-2------------|-------------|
|-5------------|------------------|--------------|-1-----4-----|
  q  q  q   q     q   q  s  s e q   w              h     h

Rhythm under Bill's lead:

|-----------|-----------|-----------|----------|
|-----------|-----------|-----------|----------|
|*----------|-----------|-10--------|-9--------|
|*-7--------|-10--------|-10--------|-9--------|
|--7--------|-10-----10-|--8--------|-7--------|
|--5--------|--8------8-|--8--------|----------|
   w           h.     q    w          w


|----------|-----------|---------------|----------|
|----------|-----------|---------------|----------|
|----------|-----------|-10---12--10---|-9-------*|
|-7--------|-10--------|-10---12--10---|-9-------*|
|-7----7-7-|-10--------|--8---10---8---|-7--------|
|-5----5-5-|--8--------|--8---10---8---|-7--------|
  h.   e e    w           h    q   q     w

On the repeat, replace this last measure with a

widely-vibratoed pinch harmonic.

 Rhy. Fig. 4                      play 3x
|---------------------|------------------|
|---------------------|------------------|
|*--------------------|-----------------*|
|*-2------2------2----|-2/3-3/6-6\5-5\2-*|
|--0-0000-0-0000-0-00-|-0/1-1/4-4\3-3\0--|
|---------------------|------------------|

   e ssss e ssss e ss   e e e e e e e e


                      (End Rhy. Fig. 4)
|--------------------|-----------------| (really PM this last bar)
|--------------------|-----------------|
|--------------------|-----------------|
|-2------8------7----|---5-4---5-4-7-5-|
|-0-0000-6-0000-5----|-0-3-2-0-3-2-5-3-|
|--------------------|-----------------|
  e ssss e ssss e      e e e e e e e e

1st verse w/Rhy. Fig. 4 (2x)


Chorus:

 Rhy. Fig. 5                 (End Rhy. Fig. 5)
|-----------|----------|-----------|----------|
|-----------|----------|-----------|----------|
|-2------5--|----------|-4------7--|----------|
|-2------5--|-3--------|-4------7--|-2--------|
|-0------3--|-3--------|-2------5--|-2--------|
|-----------|-1--------|-----------|-0--------|
  h.     q    w          h.     q    w


w/Rhy. Fig. 5 (1st three measures)

|------------------|------------------|------------------|
|------------------|------------------|------------------|
|--------------5---|------------------|--------------5---|
|-7-----5h7------7-|-7-----7----------|-7-----5h7------7-|
|---000-----00-----|---000---7-0-0-0--|---000-----00-----|
|------------------|------------------|------------------|
  e sse e e ss e e   e sse e e e e e    e sse e e ss e e

Both guitars then play the E5 (held for half a measure), followed by

another pinch harmonic, into the second verse and chorus as before.


Bridge w/Rhy. Fig. 2


Interlude:

  A5                G#m               C5/G                  D/F#

  Riff A (Gtr I)                                              (End Riff
A)
|-----------------|-----------------|-------8-7h8p7-------|---------------|
|-----5h7h8p7p5---|-----5h7h8p7p5---|-----8---------8-----|---------------|
|---5-----------5-|---5-----------5-|---7-------------7---|-------------6-|
|-7---------------|-6---------------|-5-----------------5-|-4---------6---|
|-----------------|-----------------|---------------------|--4------4-----|
|-----------------|-----------------|---------------------|---5-2-5-------|


|-----------------|-----------------|---------------------|---------------|
|-----------------|-----------------|---------------------|---------------|
|-9---------------|-4---------------|-5-------------------|-7-------------|
|-----------------|-----------------|---------------------|---------------|
|-7---------------|-2---------------|-3-------------------|-5-------------|
|-----------------|-----------------|---------------------|---------------|


|-----------------|-----------------|---------------------|---------------|
|-----------------|-----------------|---------------------|---------------|
|-2---------------|-----------------|---------------------|---------------|
|-2---------------|-6---------------|-5-------------------|-4-------------|
|-0---------------|-----------------|---------------------|---------------|
|-----------------|-4---------------|-3-------------------|-2-------------|


w/Riff A (1.75x)

  A5                G#m               C5/G                  B5/F#
|-----------------|-----------------|---------------------|---------------|
|-----------------|-----------------|---------------------|---------------|
|-9---------------|-4---------------|-5-------------------|-4-------------|
|-----------------|-----------------|---------------------|---------------|
|-7---------------|-2---------------|-3--3b---------------|-2-------------|
|-----------------|-----------------|---------------------|---------------|

|-----------------|-----------------|---------------------|---------------|
|-----------------|-----------------|---------------------|---------------|
|-2---------------|-----------------|---------------------|---------------|
|-2---------------|-6---------------|-5-------------------|-4-------------|
|-0---------------|-----------------|---------------------|---------------|
|-----------------|-4---------------|-3--(3b)-------------|-2-------------|


  A5                G#m               C5/G                  F#5
|-----------------|-----------------|---------------------|---------------|
|-----------------|-----------------|---------------------|---------------|
|-9---------------|-4---------------|-5-------------------|---------------|
|-----------------|-----------------|---------------------|-4-------------|
|-7---------------|-2---------------|-3-------------------|-4-------------|
|-----------------|-----------------|---------------------|-2-------------|


|-----------------|-----------------|---------------------|---------------|
|-----------------|-----------------|---------------------|---------------|
|-2---------------|-----------------|---------------------|---------------|
|-2---------------|-6---------------|-5-------------------|-4-------------|
|-0---------------|-----------------|---------------------|-4-------------|
|-----------------|-4---------------|-3-------------------|-2-------------|

Then the faster bit...                  4th ending:

|--------------------------------------|---------------|
|--------------------------------------|---------------|
|--------------------------------------|---------------|
|---------------------------------3/7--|-2-3-4-5-6-7---|
|-210-000-210-000-210-000-210-000------|-2-3-4-5-6-7---|
|---------------------------------1/5--|-0-1-2-3-4-5---|

(or the ending bit may be E5 G5 F#5 E5 C5 B5 - I'll check this

later)


Then another variation (after repeating the above sections) of the

intro, all tremolo picked:  (this is incorrect, and I'll fix

this later, too)

|-------------------------|-----------------------------|
|-------------------------|-----------------------------|
|------5555-7777--9-9-9-9-|------7777--9-9-9-9-10101010-|
|------7777-9999-10101010-|------9999-10101010-12121212-|
|-0000--------------------|-0000------------------------|
|-------------------------|-----------------------------|
  ssss ssss ssss  s s s s   ssss ssss  s s s s  s s s s

|---------------------------------|---------------------------------|
|---------------------------------|---------------------------------|
|-------9-9-9-9-10101010-12121212-|-14141414-12121212-10101010-12~~-|
|------10101010-12121212-14141414-|-15151515-14141414-12121212-14~~-|
|-0000----------------------------|---------------------------------|
|---------------------------------|---------------------------------|
  ssss  s s s s  s s s s  s s s s    s s s s  s s s s  s s s s  q


Then they play the intro again, as well the solo, and then the
verse, but then play this rhythm fill to lead into the chorus (outro)

|------------------|
|------------------|
|-8-9-10-11-12-13--|
|-8-9-10-11-12-13--|
|-6-7--8--9-10-11--|
|------------------|

Finally, play the fast riff from the middle section again, ending

with E5 G5 F#5 E5 C5 B5.

First solo:  (w/harmony in diatonic thirds)

 s                             hp                     h

|----------------------------------------------------------------|
|/10-8-6-5~-5-5-6~-3-6-5~----------------------------------------|
|-------------------------2--5-454-------------------------------|
|----------------------------------5-4-2-------------------------|
|----------------------------------------5-4-2-------2-45-4-2----|
|----------------------------------------------5-4-5----------0--|

              b               b
 ----------------------3------------------8-7-5-------------------|
 -------3-5-6~-8^~-5-6---6-5-3-5^-3-------------8-7-5-------------|
 2~-4-5-----------------------------5-4~--------------7-6-4-------|
 -----------------------------------------------------------7-6-4-|
 -----------------------------------------------------------------|
 -----------------------------------------------------------------|

                                                ah
 7-5-3-------------------5-3-2----------------------|
 ------7-5-3-------------------5-3-2----------------|
 ------------6-4-2-------------------4-2-1----------|
 ------------------6-4-2-------------------4-2-1----|
 ------------------------------------------------2~-|
 ---------------------------------------------------|


Second solo:

|20-18-16-15~-16-18-20-18-16---------------------------|
|----------------------------20-18-16-15-16-15---------|
|----------------------------------------------17-16~--|
|------------------------------------------------------|
|------------------------------------------------------|
|------------------------------------------------------|

Third solo:
 b                     bb           b
|--------------------------------------------------------------|
|15^-15-13-12-13-12~-13^^-13-12--------------12----12-13-12-13-|
|-------------------------------13-14^-13-14----14-------------|
|--------------------------------------------------------------|
|--------------------------------------------------------------|
|--------------------------------------------------------------|

 ---13-15^-13~-----19-17-15-----15-17^-^-15-17~-|
 15-------------17----------17~-----------------|
 -----------------------------------------------|
 -----------------------------------------------|
 -----------------------------------------------|





Comments


Popular Carcass tabs & chords
Firm Hand Bass Tabs
Cadaveric Incubator Of Endoparasites Tabs
Child's Play Tabs
Cross My Heart 1 Tabs
Genital Grinder Tabs
Heartwork 1 Tabs
Keep On Rotting In The Free World Tabs
Pedigree Butchery Tabs
Slash Dementia Tabs
This Mortal Coil 1 Tabs


Song lyrics



↑ Back to top | Tablatures and chords are parodies/interpretations of the original songs. You may use it for private study, scholarship, research or language learning purposes only
© 2014 AZChords.com Contact us | Privacy policy | DMCA | Add/correct tabs | Request tabs | Top 50 tabs