» » »

Capital Lights, Outrage Tabs (ver.3)

Artists:  A B C D E F G H I J K L M N O P Q R S T U V W X Y Z # 

Outrage Tabs (ver.3)

Capital Lights Tabs
 Rating:
4.2/5 (5 votes)
Outrage lessons Tabs too difficult? Try these video lessons and learn fast
                band:capital lights
tuning:drop d
intro keyboards
pick scr*pe then band kicks in
E------------------------------|
B------------------------------|
G-------3--3-------------------|
D--1-1--3--3---3333-55-33------|
A--1-1--1--1---3333-55-33------|
D--1 1---------3333-55-33------|


E------------------------------|
B------------------------------|
G------------------------------|
D---8888-----5555--------------|
A---8888-----5555--------------|
D---8888-----5555--------------|

verse x2 
E------------------------------|
B------------------------------|
G------------------------------|
D--5555--1111-3333--1111-------|
A--5555--1111-3333--1111-------|
D--5555--1111-3333--1111-------|


pre chorus x2
E------------------------------|
B------------------------------|
G--3-3-3-3--5-5-5-5-7-7-7-7----|
D--x-x-x-x--x-x-x-x-x-x-x-x----|
A--1-1-1-1--3-3-3-3-5-5-5-5----|
D------------------------------|

chorus x2

E------------------------------|
B------------------------------|
G-------3--3-------------------|
D--1-1--3--3---3333-55-33------|
A--1-1--1--1---3333-55-33------|
D--1 1---------3333-55-33------|


E------------------------------|
B------------------------------|
G------------------------------|
D---8888-----5555--------------|
A---8888-----5555--------------|
D---8888-----5555--------------|

some sound fx then verse kicks back in

verse x2
E------------------------------|
B------------------------------|
G------------------------------|
D--5555--1111-3333--1111-------|
A--5555--1111-3333--1111-------|
D--5555--1111-3333--1111-------|



pre chorus x2
E------------------------------|
B------------------------------|
G--3-3-3-3--5-5-5-5-7-7-7-7----|
D--x-x-x-x--x-x-x-x-x-x-x-x----|
A--1-1-1-1--3-3-3-3-5-5-5-5----|
D------------------------------|

chorus x2

E------------------------------|
B------------------------------|
G-------3--3-------------------|
D--1-1--3--3---3333-55-33------|
A--1-1--1--1---3333-55-33------|
D--1 1---------3333-55-33------|

bridge

E-----------------------------------|
B-----------------------------------|
G-----------------------------------|
D---------10-10-10-10--3333-1111----|
A---5555---8-8--8--8---3333-1111----|
D---5555---8-8--8--8---3333-1111----|


E------------------------------|
B------------------------------|
G------------------------------|
D--5555--1111-3333--1111-------|
A--5555--1111-3333--1111-------|
D--5555--1111-3333--1111-------|

chorus You couldn't see me coming with the lights out,
You're gonna find out I'll leave you raining on your own parade.
E------------------------------|
B------------------------------|
G------------------------------|
D--1---------------------------|
A--1---------------------------|
D--1---------------------------|
x2
E------------------------------|
B------------------------------|
G------------------------------|
D--1111-8888-55-33-------------|
A--1111-8888-55-33-------------|
D--1111-8888-55-33-------------|

x2
E------------------------------|
B------------------------------|
G-------3--3-------------------|
D--1-1--3--3---3333-55-33------|
A--1-1--1--1---3333-55-33------|
D--1 1---------3333-55-33------|
            
Submit corrections

comments powered by Disqus
↑ Back to top | Capital Lights Tabs for Outrage. Lyrics for acoustic guitar and electric guitar. Tablatures and chords are parodies/interpretations of the original songs. You may use it for private study, scholarship, research or language learning purposes only