» » »

Capital Lights, Outrage Bass tabs (ver.2)

Artists:  A B C D E F G H I J K L M N O P Q R S T U V W X Y Z # 

Outrage Bass tabs (ver.2)

Capital Lights Tabs
Rating:
4/5 (3 votes)
Outrage lessons Tabs too difficult? Try these video lessons and learn fast
                -------------------------------------------------------------------------------
			Outrage - Capital Lights 
-------------------------------------------------------------------------------

Tuning: Standard

Intro
G|-----------------------------------|
D|--1~------0~--------------5-5-3-3--|
A|------------------3~---------------|
E|-----------------------------------|

G|----------------------------------|
D|--1-1----10-0----0-------5-5-3-3--| x2
A|------------------3-3-3-3---------|
E|----------------------------------|

Verse
G|-------------------------------------------|
D|--5-5-5-555-1-1-1-111-3-3-3-333-0-0-0-000--| x4
A|-------------------------------------------|
E|-------------------------------------------|

Pre-Chorus
G|---------------------------------|
D|--3-3~----1-1~-------------------| x2
A|------------------3-3~-----5-5~--|
E|---------------------------------|

Chorus
G|----------------------------------|
D|--1-1----10-0----0-------5-5-3-3--| x2
A|------------------3-3-3-3---------|
E|----------------------------------|

G|----------------------|
D|--3-3-3-333-----------|
A|-----------5-5-5-555--|
E|----------------------|

Verse
G|-------------------------------------------|
D|--5-5-5-555-1-1-1-111-3-3-3-333-0-0-0-000--| x4
A|-------------------------------------------|
E|-------------------------------------------|

Pre-Chorus
G|---------------------------------|
D|--3-3~----1-1~-------------------| x2
A|------------------3-3~-----5-5~--|
E|---------------------------------|

Chorus
G|----------------------------------|
D|--1-1----10-0----0-------5-5-3-3--| x4
A|------------------3-3-3-3---------|
E|----------------------------------|

Bridge
G|-------------||------------------|    |---------||------------------|
D|--8-7-8-7-5--||--8~--0~--1~--3~--| x2 |--8-7-5--||--8~--0~--1~--3~--| x2
A|-------------||------------------|    |---------||------------------|
E|-------------||------------------|    |---------||------------------|

G|-----------------------------------|    |---|
D|--5-5-5-5-5-5-5-5-1-1-1-1-3-3-3-3--| x2 |-1-|
A|-----------------------------------|    |---|
E|-----------------------------------|    |---|

~Break - Just Singing~

Chorus
G|-----------------------------------|
D|--5-5-5-5-3-3-3-3---------5-5-3-3--| x3
A|------------------3-3-3-3----------|
E|-----------------------------------|

G|----------------------------------|
D|--1-1----10-0----0-------5-5-3-3--| 
A|------------------3-3-3-3---------|
E|----------------------------------|

G|-----------------------------------|
D|--5-5-5-5-3-3-3-3---------5-5-3-3--| x2
A|------------------3-3-3-3----------|
E|-----------------------------------|

G|----------------------------------|
D|--1-1----10-0----0-------5-5-3-3--| x2
A|------------------3-3-3-3---------|
E|----------------------------------|




| /  slide up
| \  slide down
| h  hammer-on
| p  pull-off
| ~  let note ring
| +  harmonic
| x  Mute note
===============================================================================
            

comments powered by Disqus
↑ Back to top | Capital Lights Bass for Outrage. Lyrics for acoustic guitar and electric guitar. Tablatures and chords are parodies/interpretations of the original songs. You may use it for private study, scholarship, research or language learning purposes only