>
 >
Outrage

Outrage Guitar Tabs

Capital Lights - Outrage chords, tabs, tablatures, lyrics

Guitar lessons | Add/correct | Request | Top 50 tabs Artists:  A B C D E F G H I J K L M N O P Q R S T U V W X Y Z 0-9

Outrage Guitar Tabs – Capital Lights

CD, Sheet music, Poster

Do you like Outrage? Share with your friends now
Bass TabsBass Tabs v2TabsTabs v2
Length: 3:50
Tuning: Drop D

Hey all, well this is a good fun song to play and its pretty easy so yup. I don't think 
tab is 100% correct, but please rate and leave comments. Thanks. =]

Intro
Both Guitars (0:09)
e|------------------------------|-----------|-------------------|
B|------------------------------|-----------|-------------------|
G|-------------------------3-3--|--3-3-3-3--|-------------------|
D|--/////////////////--1-1-x-x--|--3-3-x-x--|--3-3-3-3-5-5-3-3--|
A|--////PICK SLIDE///--1-1-1-1--|--1-1-1-1--|--3-3-3-3-5-5-3-3--|
D|--/////////////////--1-1------|-----------|--3-3-3-3-5-5-3-3--|

Continued (0:16)
e|-------|-------|-------------------|
B|-------|-------|-------------------|
G|-------|--3-3--|-------------------|
D|--1-1--|--3-3--|--3-3-3-3-5-5-3-3--|
A|--1-1--|--1-1--|--3-3-3-3-5-5-3-3--|
D|--1-1--|-------|--3-3-3-3-5-5-3-3--|

Guitar 2 (0:22)
e|---------------------|
B|---------------------|
G|---------------------|
D|--8-8-8/8/8/8-7-7-7--|
A|--8-8-8/8/8/8-7-7-7--|
E|--------------7-7-7--|

Guitar 2 (0:25) x4
e|---------------|---------------|---------------|---------------|
B|---------------|---------------|---------------|---------------|
G|---------------|---------------|---------------|---------------|
D|---------------|---------------|---------------|---------------|
A|--5-5-5/5/5/5--|--1-1-1/1/1/1--|--3-3-3/3/3/3--|--0-0-0/0/0/0--|
D|--5-5-5/5/5/5--|--1-1-1/1/1/1--|--3-3-3/3/3/3--|--0-0-0/0/0/0--|


Guitar 1 (0:36) x2
e|---------------------------------|---------------|---------------|---------------|
B|---------------------------------|---------------|---------------|---------------|
G|---------------------------------|---------------|---------------|---------------|
D|--////////////////------5/5/5/5--|------1/1/1/1--|------3/3/3/3--|------0/0/0/0--|
A|--///PICK SLIDE///--5-5-5/5/5/5--|--1-1-1/1/1/1--|--3-3-3/3/3/3--|--0-0-0/0/0/0--|
D|--////////////////--5-5-5/5/5/5--|--1-1-1/1/1/1--|--3-3-3/3/3/3--|--0-0-0/0/0/0--|


Pre-chorus
Guitar 1 (0:48) x2
e|------------------|
B|------------------|
G|------5-7-5~--7~--|
D|--5~--x-x-x~--x~--|
A|--x~--3-5-3~--5~--|
D|--5~--------------|

Guitar 2 (0:48)
e|----3~--|
B|----3~--|
G|--------|
D|--1-----|
A|--1-----|
D|--1-----|

Chorus
Both Guitars (1:00) x2
e|-----------|-----------|-------------------|
B|-----------|-----------|-------------------|
G|------3-3--|--3-3-3-3--|-------------------|
D|--1-1-x-x--|--3-3-x-x--|--3-3-3-3-5-5-3-3--|
A|--1-1-1-1--|--1-1-1-1--|--3-3-3-3-5-5-3-3--|
D|--1-1------|-----------|--3-3-3-3-5-5-3-3--|

Post Chorus
e|---------------------|
B|---------------------|
G|---------------------|
D|--8-8-8/8/8/8-7-7-7--|
A|--8-8-8/8/8/8-7-7-7--|
D|--8-8-8/8/8/8-7-7-7--|

Verse
Both Guitars (1:24) x2 *Play first time only
e|----------------------------------|---------------|---------------|---------------|
B|----------------------------------|---------------|---------------|---------------|
G|----------------------------------|---------------|---------------|---------------|
D|--/////////////////--5-5-5/5/5/5--|--1-1-1/1/1/1--|--3-3-3/3/3/3--|--0-0-0/0/0/0--|
A|--///PICK SLIDE*///--5-5-5/5/5/5--|--1-1-1/1/1/1--|--3-3-3/3/3/3--|--0-0-0/0/0/0--|
D|--/////////////////--5-5-5/5/5/5--|--1-1-1/1/1/1--|--3-3-3/3/3/3--|--0-0-0/0/0/0--|

Repeat Pre-chorus

Repeat Chorus x4


Bridge
Guitar 2 (2:14)
e|--------------|------------------|----------|------------------|
B|--------------|------------------|----------|------------------|
G|--------------|------------------|----------|------------------|
D|--8-7-8-7-5~--|--8~--0~--1~--3~--|--8-7-5~--|--8~--0~--1~--3~--|
A|--8-7-8-7-5~--|--8~--0~--1~--3~--|--8-7-5~--|--8~--0~--1~--3~--|
D|--8-7-8-7-5~--|--8~--0~--1~--3~--|--8-7-5~--|--8~--0~--1~--3~--|

Guitar 1 (2:14) x2                               *Donít play these notes the second time.
e|----------------------|-----------|------|-------|--------------|
B|--11*-10*-------------|-----------|------|-------|--------------|
G|---------12*-10*-0~*--|--7~---5~--|--7~--|--10~--|--12~*--14~*--|
D|----------------------|-----------|------|-------|--------------|
A|----------------------|-----------|------|-------|--------------|
D|----------------------|-----------|------|-------|--------------|

Guitar 2 (2:39) x2
e|-------------------|--------------------|
B|-------------------|--------------------|
G|-------------------|--------------------|
D|--5-5-5-5-5-5-5-5--|--1-1-1-1--3-3-3-3--|
A|--5-5-5-5-5-5-5-5--|--1-1-1-1--3-3-3-3--|
D|--5-5-5-5-5-5-5-5--|--1-1-1-1--3-3-3-3--|

Guitar 1 (2:39)
e|-----------------------------------|---------------------------------------|
B|-----------------------------------|---------------------------------------|
G|--5-5-5-5-10-10-10-10-12-12-12-12--|--12-12-12-12-15-15-15-15-17-17-17-17--|
D|--x-x-x-x-x--x--x--x--x--x--x--x---|--x--x--x--x--x--x--x--x--x--x--x--x---|
A|--3-3-3-3-8--8--8--8--10-10-10-10--|--10-10-10-10-13-13-13-13-15-15-15-15--|
D|-----------------------------------|---------------------------------------|

Both Guitars (2:50)
e|-----|
B|-----|
G|-----|
D|--1--|
A|--1--|
D|--1--|


Chorus
Both Guitars (3:01) x4 Only play the pick slide the first time.
e|-----------------------------|-----------|-------------------|
B|-----------------------------|-----------|-------------------|
G|-----------------------------|--3-3-3-3--|-------------------|
D|--////////////////--1-1-1-1--|--3-3-3-3--|--3-3-3-3-5-5-3-3--|
A|--///PICK SLIDE///--1-1-1-1--|--1-1-1-1--|--3-3-3-3-5-5-3-3--|
D|--////////////////--1-1-1-1--|-----------|--3-3-3-3-5-5-3-3--|

Both Guitars (3:19)
e|-----------|-----------|-------------------|
B|-----------|-----------|-------------------|
G|------3-3--|--3-3-3-3--|-------------------|
D|--1-1-x-x--|--3-3-x-x--|--3-3-3-3-5-5-3-3--|
A|--1-1-1-1--|--1-1-1-1--|--3-3-3-3-5-5-3-3--|
D|--1-1------|-----------|--3-3-3-3-5-5-3-3--|


Both Guitars (3:25) x2
e|-----------|-----------|-------------------|
B|-----------|-----------|-------------------|
G|-----------|--3-3-3-3--|-------------------|
D|--1-1-1-1--|--3-3-3-3--|--3-3-3-3-5-5-3-3--|
A|--1-1-1-1--|--1-1-1-1--|--3-3-3-3-5-5-3-3--|
D|--1-1-1-1--|-----------|--3-3-3-3-5-5-3-3--|

Both Guitars (3:37) x2 Slide out the second time.
e|-----------|-----------|-------------------|
B|-----------|-----------|-------------------|
G|------3-3--|--3-3-3-3--|-------------------|
D|--1-1-x-x--|--3-3-x-x--|--3-3-3-3-5-5-3-3--|
A|--1-1-1-1--|--1-1-1-1--|--3-3-3-3-5-5-3-3--|
D|--1-1------|-----------|--3-3-3-3-5-5-3-3--|





Comments


Popular Capital Lights tabs & chords
Coldfront Heatstroke Chords
Frank Morris Chords
Hey Little One Chords
Miracle Man Tabs
Out Of Control Tabs
Remember The Day Tabs
Return Tabs
Rhythm N Moves Tabs
Let The Little Lady Talk Ukulele
Mile Away Ukulele


Song lyrics



↑ Back to top | Tablatures and chords are parodies/interpretations of the original songs. You may use it for private study, scholarship, research or language learning purposes only
© 2014 AZChords.com Contact us | Privacy policy | DMCA | Add/correct tabs | Request tabs | Top 50 tabs