» » »

Outrage Bass tabs (ver.1)

Artists:  A B C D E F G H I J K L M N O P Q R S T U V W X Y Z # 

Outrage Bass tabs (ver.1)

Capital Lights
Rating:
5/5 (1 vote)

Hard to play? Try these video lessons and learn fast.
                ----------------------------------------------------------------------------
----------------------------------------------------------------------------


Alright, this is a really easy song that I learned to play through guitar music. It 
has 3 Parts found throughout the song, Verse, Pre-Chorus, and Chorus. I will write out where 
play them all.


Intro:

G|---------------------------------------------------------------------------|
D|---------------------------------------------------------------------------|
A|---------------------------------------------------------------------------|
E|---------------------------------------------------------------------------|


Verse:

G|------------------------------------------|
D|-----5-5-5-5-1-1-1-1-3-3-3-3-0-0-0-0  x 4-|
A|------------------------------------------|
E|------------------------------------------|

Pre-Chorus:
G|---------------------------------------------------|
D|-----5----5-3----3-1----1-5----5-3----3-1----------|
A|---------------------------------------------------|
E|---------------------------------------------------|

Chorus
G|--------------------------------------|
D|----1-1-1-1-3-3-3-3-3-3-3-3--5-5-33---|  x 2
A|--------------------------------------|
E|--------------------------------------|

Wait for the drum part to stop Then do the chorus again.

Verse:

G|------------------------------------------|
D|-----5-5-5-5-1-1-1-1-3-3-3-3-0-0-0-0  x 2-|
A|------------------------------------------|
E|------------------------------------------|

Pre-Chorus:
G|---------------------------------------------------|
D|-----5----5-3----3-1----1-5----5-3----3-1----------|
A|---------------------------------------------------|
E|---------------------------------------------------|

Chorus
G|--------------------------------------|
D|----1-1-1-1-3-3-3-3-3-3-3-3--5-5-33---|  x 4
A|--------------------------------------|
E|--------------------------------------|

Bridge


Chorus:
G|--------------------------------------|
D|----1-1-1-1-3-3-3-3-3-3-3-3--5-5-33---|  x 4
A|--------------------------------------|
E|--------------------------------------|

Then do it again as the outro.
And most importantly have fun with this song!

God Bless,
Adam
            
Hard to play? Try these video lessons and learn fast. | Correct




comments powered by Disqus
↑ Back to top | Tablatures and chords are parodies/interpretations of the original songs. You may use it for private study, scholarship, research or language learning purposes only