>
 >
Gutted 2

Gutted 2 Guitar Tabs

Cannibal Corpse - Gutted 2 chords, tabs, tablatures, lyrics

Guitar lessons | Add/correct | Request | Top 50 tabs Artists:  A B C D E F G H I J K L M N O P Q R S T U V W X Y Z 0-9

Gutted 2 Guitar Tabs – Cannibal Corpse

CD, Sheet music, Poster

Do you like Gutted 2? Share with your friends now
Bass TabsTabsTabs v2Tabs v3
Cannibal Corpse- Gutted

Riff 1
|-------------------------|
|-------------------------|
|-------------------------|
|-------4-3---6-5---5-4---|
|-4-3---2-1-0-4-3-0-3-2-0-|
|-2-1-0-------------------|
  . . . . . . . . . . . .


Riff 2

Guitar 1
|-------------------------------------------------------------------------|
|-------------------------------------------------------------------------|
|-------------------------------------------------------------------------|
|-------------------------------------------------------------------------|
|----------21004300-11111111-32002100----------21004300----------32002100-|
|-22222222----------------------------22222222----------11111111----------|

Guitar 2
|-------------------------------------------------------------------------|
|-------------------------------------------------------------------------|
|-------------------3-----------------------------------------------------|
|-4-----------------3-----------------4-----------------3-----------------|
|-4-----------------1-----------------4-----------------3-----------------|
|-2-----------------1-----------------2-----------------1-----------------|



Riff 3 - Both Guitars
|-------------------------------------------------------------------------|
|-------------------------------------------------------------------------|
|-------------------------------------------------------------------------|
|-------------------------------------------------------------------------|
|----------21004300-11111111-32002100----------21004300----------32002100-|
|-22222222----------------------------22222222----------11111111----------|



Riff 4
|-------------------------------------------------------------|
|-------------------------------------------------------------|
|-------------------------------------------------------------| Play this
|---------7\6-5-------------------------5\4-3-----------------| twice
|---------7\6-5--------------4----------5\4-3--------------4--|
|-0-0-0-0-5\4-3--0-0-0-0-2-3----0-0-0-0-3\2-1--0-0-0-0-2-3----|
  . . . .        . . . . . .    . . . .        . . . . . .

                                                            1,3  2
|----------------------------------------------------------|---|---|
|----------------------------------------------------------|---|---|
|----------------------------------------------------------|---|---| Play this
|---------7\6-5----------7\6-5----------5\4-3--------------|---|---| 3 times
|---------7\6-5----------7\6-5----------5\4-3--------------|-4-|-1-|
|-0-0-0-0-5\4-3--0-0-0-0-5\4-3--0-0-0-0-3\2-1--0-0-0-0-2-3-|---|---|
  . . . .        . . . .        . . . .        . . . . . .

|-------------------------------------------------------------|
|-------------------------------------------------------------|
|-------------------------------------------------------------| Play this
|---------7\6-5----------7\6-5----------5\4-3----------5\4-3--| once
|---------7\6-5----------7\6-5----------5\4-3----------5\4-3--|
|-0-0-0-0-5\4-3--0-0-0-0-5\4-3--0-0-0-0-3\2-1--0-0-0-0-3\2-1--|
  . . . .        . . . .        . . . .        . . . .


Riff 5
|----------------------------------------------------|
|----------------------------------------------------|
|----------------------------------------------------| Play this
|-------3--------3--------3--------------------------| 6 times
|-7-6-7----7-6-7----7-6-7----------------------------|
|-5-4-5----5-4-5----5-4-5----1h2p1h2p1h2-2h3p2h3p2h3-|
  . . .    . . .    . . .

|-----------------|
|-----------------|
|-----------------| Play this
|-------3---7---6-| 4 times
|-7-6-7---4---3---|
|-5-4-5-----------|
  . . .   .   .


Riff 6 - Play 4 times                                        1,2,3   4
|---------------------------------------------------------|--------|---|
|---------------------------------------------------------|--------|---|
|---------------------------------------------------------|--------|---|
|---------------------------------------------------------|--------|-3-|
|---------------------------------------------------------|--------|-3-|
|-000000-111111-444444-333333-000000-444444-333333-000000-|-111111-|-1-|



Now go back and play the first bar of riff 5 twice, then...

Riff 7 - Play twice
|---------------------------------------------------------|
|---------------------------------------------------------|
|---------------------------------------------------------|
|---------------------------------------------------------|
|------------------------------8--4h5p4h5p4h5-3h4p3h4p3h4-|
|-5h6p5h6p5h6-4h5p4h5p4h5--5-6----------------------------|
                           . . .

|-------------------------------------------------|
|-------------------------------------------------|
|-------------------------------------------------|
|-------------------------------------------------|
|-5-5-5-4-4-4-2h3p2h3p2h3-1h2p1h2p1h2-3-3-3-2-2-2-|
|-3-3-3-2-2-2-------------------------1-1-1-0-0-0-|
  . . . . . .                         . . . . . .


Riff 8 - Play 4 times
|--------------------------------------------------------------------------|
|--------------------------------------------------------------------------|
|--------------------------------------------------------------------------|
|--------------------------------------------------------------------------|
|-------------------------5-5-5-4-4-4--2h3p2h3p2h3-1h2p1h2p1h2-3-3-3-2-2-2-|
|-5h6p5h6p5h6-4h5p4h5p4h5-3-3-3-2-2-2--------------------------1-1-1-0-0-0-|
                          . . . . . .                          . . . . . .


Now go back and play riff 1, then...

Riff 8

Guitar1
|-------------------------------------------------------------------------|
|-------------------------------------------------------------------------|
|-------------------------------------------------------------------------|
|-------------------------------------------------------------------------|
|-------------------------------------------------------------------------|
|-00000000-32002100-00000000-32003200-00000000-32002100-00000000-21002100-|

Guitar 2
|-------------------------------------------------------------------------|
|-------------------------------------------------------------------------|
|-------------------------------------------------------------------------|
|-2-----------------2-----------------2-----------------2-----------------|
|-2-----------------2-----------------2-----------------2-----------------|
|-0-----------------0-----------------0-----------------0-----------------|



Riff 9 - Both Guitars
|-------------------------------------------------------------------------|
|-------------------------------------------------------------------------|
|-------------------------------------------------------------------------|
|-------------------------------------------------------------------------|
|-------------------------------------------------------------------------|
|-00000000-32002100-00000000-32003200-00000000-32002100-00000000-21002100-|


Now go back and play riff 3, then...

Finish the song like this:

Both Guitars
|----------------------|
|----------------------|
|-------3--------------|
|-4-----3-----4-----3--|
|-4-----1-----4-----3--|
|-2-----1-----2-----1--|





Comments


Popular Cannibal Corpse tabs & chords
Encased In Concrete Bass Tabs
Bent Backwards And Broken Tabs
Demented Aggression Tabs
Entrails Ripped From A Virgins Cunt 1 Tabs
Gutted 1 Tabs
Monolith 1 Tabs
No Remorse 1 Tabs
Priests Of Sodom 3 Tabs
Sentenced To Burn 1 Tabs
Slain Tabs


Song lyrics



↑ Back to top | Tablatures and chords are parodies/interpretations of the original songs. You may use it for private study, scholarship, research or language learning purposes only
© 2014 AZChords.com Contact us | Privacy policy | DMCA | Add/correct tabs | Request tabs | Top 50 tabs