>
 >
Gutted 1

Gutted 1 Guitar Tabs

Cannibal Corpse - Gutted 1 chords, tabs, tablatures, lyrics

Guitar lessons | Add/correct | Request | Top 50 tabs Artists:  A B C D E F G H I J K L M N O P Q R S T U V W X Y Z 0-9

Gutted 1 Guitar Tabs – Cannibal Corpse

CD, Sheet music, Poster

Do you like Gutted 1? Share with your friends now
Bass TabsTabsTabs v2Tabs v3
Canibal Corpse-Gutted
I think some riffs are missing, i'll try and get them in later.  This has been on my computer forever so I hope it's still a good tab.

|--------------------------------|
|--------------------------------|
|--------------------------------|   
|----------------543-------------|
|------------321-----432---------|
|-------321----------------------|


|--------------------------------------|
|--------------------------------------|
|--------------------------------------|   
|-----------432543----------432321-----|
|-111111----------000000---------------|
|--------------------------------------|

|-----------------------------------------------------------------------------|
|-----------------------------------------------------------------------------|
|-2-2-2-2----8\7----2-2-2-2-------------2-2-2-2----6\5----2-2-2-2-------------| 
|-2-2-2-2----8\7----2-2-2-2--------6----2-2-2-2----6\5----2-2-2-2--------6----|
|-0-0-0-0----6\5----0-0-0-0------6------0-0-0-0----4\3----0-0-0-0------6------|
|------------------------------5-------------------------------------5--------|

|-------------------------------------------------------------------------|
|-------------------------------------------------------------------------|
|-2-2-2-2----8\7----2-2-2-2----8\7----2-2-2-2----6\5----2-2-2-2-----------|   
|-2-2-2-2----8\7----2-2-2-2----8\7----2-2-2-2----6\5----2-2-2-2---------6-|
|-0-0-0-0----6\5----0-0-0-0----6\5----0-0-0-0----4\3----0-0-0-0-------6---|
|-------------------------------------------------------------------5-----|

|-----------------------------------------------------------------------|
|-----------------------------------------------------------------------|
|-2-2-2-2----8\7----2-2-2-2----8\7----2-2-2-2----6\5----2-2-2-2---------|     
|-2-2-2-2----8\7----2-2-2-2----8\7----2-2-2-2----6\5----2-2-2-2--------4|
|-0-0-0-0----6\5----0-0-0-0----6\5----0-0-0-0----4\3----0-0-0-0------4--|
|------------------------------------------------------------------3----|

|-----------------------------------------------------------------------|
|-----------------------------------------------------------------------|
|-2-2-2-2----8\7----2-2-2-2----8\7----2-2-2-2----6\5----2-2-2-2---------|    
|-2-2-2-2----8\7----2-2-2-2----8\7----2-2-2-2----6\5----2-2-2-2--------6|
|-0-0-0-0----6\5----0-0-0-0----6\5----0-0-0-0----4\3----0-0-0-0------6--|
|------------------------------------------------------------------5----|

|-----------------------------------------------------------------------|
|-----------------------------------------------------------------------|
|-2-2-2-2----8\7----2-2-2-2----8\7----2-2-2-2----6\5----2-2-2-2----6\5--|     
|-2-2-2-2----8\7----2-2-2-2----8\7----2-2-2-2----6\5----2-2-2-2----6\5--|
|-0-0-0-0----6\5----0-0-0-0----6\5----0-0-0-0----4\3----0-0-0-0----4\3--|
|-----------------------------------------------------------------------|

|-----------------------------------------------|
|-----------------------------------------------|
|-----------------------------------------------|   
|-----------------------------------------------|
|-------------9----------9----------------------|
|-----7-6-7------7-6-7------7-6-7----4h5p4h5p4--|

|------------------------|
|------------------------|
|------------------------|   
|-----------------9---8--|
|------------9--8---7----|
|----7-6-7---------------|

|-------------------------------------------------------------------------|
|-------------------------------------------------------------------------|
|-------------------------------------------------------------------------|  
|-------------------------------------------------------------------------|
|-0-0-0-0-1-1-1-1-3-3-3-3-4-4-4-4-0-0-0-0-3-3-3-3-4-4-4-4-0-0-0-0-1-1-1-1-|
|-------------------------------------------------------------------------|

|-------------------------------------------------------------------------|
|-------------------------------------------------------------------------|
|-------------------------------------------------------------------------|  
|-7-7-7-7-8-8-8-8-11-11-11-11-10-10-10-10-7-7-7-7-11-11-11-11-10-10-10-10-|
|-------------------------------------------------------------------------|
|-------------------------------------------------------------------------|

|-----------|
|-----------|
|--------3--|  
|7-7-7-7-3--|
|--------1--|
|-----------|

|-----------------------------------------------|
|-----------------------------------------------|
|-----------------------------------------------|   
|-----------------------------------------------|
|-------------9----------9----------------------|
|-----7-6-7------7-6-7------7-6-7----4h5p4h5p4--|

|-----------------------------------------------------------------------------|
|-----------------------------------------------------------------------------|
|-----------------------------------------------------------------------------| 
|-------------------------7---------------------------------------------------|
|-5h6p5h6p5-4h5p4h5p4---6----4h5p4h5p4-3h4p3h4p3--555444--2h3p2h3p2-1h2p1h2p1-|
|---------------------5---------------------------333222----------------------|



|-----------------------------|
|-----------------------------|
|-----------------------------|   
|-----------------------------|
|-444333----------------------|
|-222111--5h6p5h6p5-4h5p4h5p4-|


|--------|
|--------|
|--------| 
|--------|
|-444333-|
|-222111-|

|--------------------------------|
|--------------------------------|
|--------------------------------|   
|----------------543-------------|
|------------321-----432---------|
|-------321----------------------|

|--------------------------------------|
|--------------------------------------|
|--------------------------------------|   
|--------------------------------------|
|-000000--432321--000000--432321-------|
|--------------------------------------|

|--------------------------------------|
|--------------------------------------|
|--------------------------------------|   
|---------432543----------432321-------|
|-111111----------000000---------------|
|--------------------------------------|

|-------------------------|
|-------------------------|
|-3-------7------3-------2|  
|-3-------7------3-------2|
|-1-------5------1-------0|
|-------------------------|





Comments


Popular Cannibal Corpse tabs & chords
Hammer Smashed Face Bass Tabs
Crushing The Despised Tabs
Disfigured 3 Tabs
Disposal Of The Body 2 Tabs
Hacksaw Decapitation 1 Tabs
Mangled Tabs
Meat Hook Sodomy Tabs
Relentless Beating Tabs
Savage Butchery Tabs
Scattered Remains Splattered Brains 1 Tabs


Song lyrics



↑ Back to top | Tablatures and chords are parodies/interpretations of the original songs. You may use it for private study, scholarship, research or language learning purposes only
© 2014 AZChords.com Contact us | Privacy policy | DMCA | Add/correct tabs | Request tabs | Top 50 tabs