» » »

Blowtorch Slaughter Tabs (ver.1)

Artists:  A B C D E F G H I J K L M N O P Q R S T U V W X Y Z # 

Blowtorch Slaughter Tabs (ver.1)

Cannibal Corpse
Rating:
0/5 (0 votes)

Tabs too difficult? Try these video lessons and learn fast.
                Played on a seven string
i had my guitar tuned into standard and drop d so either of those sounds fine to me...
Haven't got the solo cuz thats just impossible it sounds right but could be wrong


Intro
Guitar 1
|----------------|----------------|----------------|----------------|
|----------------|----------------|----------------|----------------|
|----------------|----------------|----------------|----------------|
|----------------|----------------|----------------|----------------|
|--8--7--444444--|--8--7--444444--|--8--7--444444--|--8--7--444444--|
|--6--5----------|----------------|----------------|----------------|
|----------------|----------------|----------------|----------------|
      .
Intro
Guitar 2
|----------------|----------------|----------------|----------------|
|----------------|----------------|----------------|----------------|
|----------------|----------------|--------555555--|--------888888--|
|--8--7--444444--|--8--7--555555*-|--8--7----------|--8--7----------|
|--6--5----------|--6--5----------|--6--5----------|--6--5----------|
|----------------|----------------|----------------|----------------|
      .                .                .                .
                  (**could be 5's or 7's**)

|----------------------------|----------------------------|
|----------------------------|----------------------------|
|--------------------4/5-----|----------------------------|
|--4444448--7--------4/5-----|--111111511211511211411211--|
|--------6--5-----------0000-|----------------------------|
|--------------555666--------|----------------------------|
         .  .           ....

|----------------------------|
|----------------------------|
|--------2--------2-----2----|
|--------2--------2-----2----|
|----------------------------|
|--222222--2222222---222-----|


|--------------------------|
|--------------------------|
|--------2--------6--5--3--|
|--------2--------6--5--3--|
|--------------------------|
|--222222--2222222---------|
         .


|--------------------------------|
|--------------------------------|
|--------------------------------|
|--------------------------------|
|--6666666666--------------------|
|-------------2-5---3-6---4-7\8--|


|----------------------------------------------|
|----------------------------------------------|
|----------------------------------------------|
|----------------------------------------------|
|----------------------------------------------|
|--222-6p3h2-222-5h8p5-----222-6p3h2-2-2-5-3---|

|---------------------------------------------------|
|---------------------------------------------------|
|---------------------------------------------------|
|---------------------------------------------------|
|--4-----5-----7------------------------------------|
|--2-----3-----5---3-4-6-4-6-8-6-8-999999999999-----|
   .     .     .


|-----------------------------------------------------|
|-----------------------------------------------------|
|-----------------------------------------------------|
|-----------------------------------------------------|
|-----------------------------------------------------|
|--0--0--0--0--0--0--0--0--0--0--0--0--0--0--0--0--0--|

|--------------------|
|--------------------|
|--------------------|
|--------------------|
|--------------------|
|--3-4-6-4-6-8-6-8---|

|------------------------------------------|
|------------------------------------------|
|------------------------------------------|
|------------------------------------------|
|------------------------------------------|
|--9996-6-8885-5-7774-4-6663-3-552-2-4441--|


|------------------------------|
|------------------------------|
|------------------------------|
|------------------------------|
|--4-----5-----7---3-----------|
|--2-----3-----5---1---0-0-6~)-|



outro

|---------------|
|---------------|
|---------------|
|---------------|
|---2--2--2--2--|
|---0--0--0--0--|

|---------------------|
|---------------------|
|---------------------|
|---------------------|
|0--0--0--0--0--0--0--|
|0--0--0--0--0--0--0--|
 .  .  .  .  .  .  .
            
Tabs too difficult? Try these video lessons and learn fast.




comments powered by Disqus
↑ Back to top | Tablatures and chords are parodies/interpretations of the original songs. You may use it for private study, scholarship, research or language learning purposes only