>
 >
Gutted

Gutted Bass Tabs

Cannibal Corpse - Gutted chords, tabs, tablatures, lyrics

Guitar lessons | Add/correct | Request | Top 50 tabs Artists:  A B C D E F G H I J K L M N O P Q R S T U V W X Y Z 0-9

Gutted Bass Tabs – Cannibal Corpse

CD, Sheet music, Poster

Do you like Gutted? Share with your friends now
Bass TabsTabsTabs v2Tabs v3
Tuning B,E,A,D,G


Intro   (the guitar plays alone the first time)
G|-----------------------------------|
D|-----------------------------------| x7
A|-----------------------------------|
E|--------2-1-0-4-3-0-3-2-0----------|
B|--2-1-0----------------------------|

Intro part 2
G|---------------------|
D|---------------------|
A|---------------------|
E|------1--------------|
B|-2---------2----1----|

Verse 1 
G|---------------------------------------|
D|---------------------------------------| x5
A|---------------------------------------|
E|----00043---11132---00043---11132------|
B|-2--------1-------2-------1------------|

Pre Chores
G|-------------------|
D|-------------------| x4
A|-------------------|
E|---------------1-4-|
B|-0000-7-5-0000-----|

Verse 2
G|------------------------------------|
D|------------------------------------| x4
A|------------------------------------|
E|---------------------------------1-4|
B|-0000-7-5-0000-7-5-0000-7-5-0000----|

Play this part after the 4 time on verse 2

G|-------------------------------------|
D|-------------------------------------|
A|-------------------------------------|
E|-------------------------------------|
B|-0000-7-5-0000-7-5-0000-7-5-0000-7-5-|

Verse 3

G|----------------------------------------|
D|----------------------------------------| x6
A|----------------------------------------|
E|-------6-------6--------6---------------|
B|-5-4-5---5-4-5---5-4-5----2----3-4------|

G|---------------------|
D|---------------------| x4
A|---------------------|
E|-------6-----8-----9-|
B|-5-4-5---7-----6-----|

Pre Bridge

G|---------------------------------------------------|
D|---------------------------------------------------|
A|---------------------------------------------------|
E|---------------------------------------------------|
B|--000000111111444444333333000000444444333333000000-|

G|------------------------------------------------------------|
D|------------------------------------------------------------|
A|------------------------------------------------------------|
E|------------------------------------------------------------|
B|--111111000000111111444444333333000000444444333333000000----|

Chorus
G|----------------------------------|
D|----------------------------------| x2
A|----------------------------------|
E|-------6-------6-------6----------|
B|-5-4-5---5-4-5---5-4-5---2----3-4-|

Bridge
G|------------------------------------------------------------|
D|------------------------------------------------------------|
A|------------------------------------------------------------|
E|----------------6-4-5--3-4----------------2-3--1-2----------|
B|-5-6--4-5--4-5--------------3-3-3-2-2-2---------------1-1-1-|

G|--------|----------|
D|--------|----------|
A|--------|----------|
E|--------|----------|
B|-0-0-0--|-5-6--4-5-|

G|--------------------------------------------|
D|--------------------------------------------| x6
A|--------------------------------------------|
E|--------------2-3--1-2----------------------|
B|-3-3-3-2-2-2-----------1-1-1-0-0-0-5-6--4-5-|

Intro  (second time)
G|------------------------------------|
D|------------------------------------| x4
A|------------------------------------|
E|--------2-1-0-4-3-0-3-2-0-----------|
B|--2-1-0-----------------------------|

Intro part 2
G|---------------------|
D|---------------------|
A|---------------------|
E|------1--------------|
B|-2---------2----1----|

Pre Outro
G|--------------------|
D|--------------------| x7
A|--------------------|
E|--------------------|
B|--0000000021002100--|

Verse 4
G|-----------------------------------|
D|-----------------------------------| x2
A|-----------------------------------|
E|----00043---11132---00043---11132--|
B|-2--------1-------2-------1--------|

Outro
G|---------------------|
D|---------------------|
A|---------------------|
E|---------------------|
B|-1----3----2----1----|

not 100% correct but close





Comments


Popular Cannibal Corpse tabs & chords
An Experiment In Homcide Tabs
Buried In The Backyard 1 Tabs
Compelled To Lacerate 1 Tabs
Decency Defied Tabs
Demented Aggression Tabs
Drowning In Viscera Tabs
Infinate Misery Tabs
Puncture Wound Massacre Tabs
Sentenced To Burn Tabs
Shredded Humans Tabs


Song lyrics



↑ Back to top | Tablatures and chords are parodies/interpretations of the original songs. You may use it for private study, scholarship, research or language learning purposes only
© 2014 AZChords.com Contact us | Privacy policy | DMCA | Add/correct tabs | Request tabs | Top 50 tabs