>
 >
Ice Live

Ice Live Guitar Tabs

Camel - Ice Live chords, tabs, tablatures, lyrics

Guitar lessons | Add/correct | Request | Top 50 tabs Artists:  A B C D E F G H I J K L M N O P Q R S T U V W X Y Z 0-9

Ice Live Guitar Tabs – Camel

CD, Sheet music, Poster

Do you like Ice Live? Share with your friends now
Tabs
BAND - CAMEL
SONG - ICE
Recorded on March 13th, 1997 at The Billboard Live club in Hollywood, California 

                                 Check Us Out At


brp - bend reverse pull-off
 rp - reverse pull-off
 rb - reverse bend
 br - bend reverse
  s - slide
  h - hammer-on
  p - pull-off
  b - bend
 PH - pinch harmonics
  ~ - move fingers up and down

00:09
[----------------|-----------s-----------|-----------------]
[---5-6--6-5-----|---5-6-6--8\10-10--5---|---5-66--6-5-----]
[-7----------5-7-|-7-------------------7-|-7-----------5-7-]   
[----------------|-----------------------|-----------------]
[----------------|-----------------------|-----------------]
[----------------|-----------------------|-----------------]


[----------s-----------|-----5---|---------|-----5---|-------]
[---5-66--8\10-10--5---|-6-8---5-|-5-6-5---|-6-8---5-|-6-5---]
[-7------------------7-|---------|-------7-|---------|-----7-]
[----------------------|---------|---------|---------|-------]
[----------------------|---------|---------|---------|-------]
[----------------------|---------|---------|---------|-------]

01:01     h p          p       p
[-5--8-6-5-6-5---5-|-10-8-8-|-8-6-5--------s--|-----5---|----h p----]
[--------------8---|--------|-------8-6-5-6\8-|-6-8---5-|-6-5-6-5---]
[------------------|--------|-----------------|---------|---------7-]
[------------------|--------|-----------------|---------|-----------]
[------------------|--------|-----------------|---------|-----------]
[------------------|--------|-----------------|---------|-----------]

01:21
[----------------|---------------b------|----------------]
[---5-6--6-5-----|---5-6-6--8-10-8--5---|---5-6--6-5-----]
[-7----------5-7-|-7------------------7-|-7----------5-7-]
[----------------|----------------------|----------------]
[----------------|----------------------|----------------]
[----------------|----------------------|----------------]


[----------s------------]
[---5-66--8\10-10--5----]
[-7-------------------7-]
[-----------------------]
[-----------------------]
[-----------------------]


Heavier Guitar
02:17
  hold note       br  hold note
[-12---------12--12--10---------13-12----------s----s-|--b-r----]
[-------------------------------------13-----11\9-9-\-|-9-----8-]
[----------------------------------------12-----------|---------]X2
[-----------------------------------------------------|---------]
[-----------------------------------------------------|---------]
[-----------------------------------------------------|---------]

_____________________________________________________________________________

Chords
03:30
D/E  Bb

[-------|-----------------------|-------------|---------------|-------------]
[-6-----|-5-------------5-------|-------6-----|-------6-------|-------5-----]
[---5---|---5---------5---5-----|-----5---5---|-----5---5-----|-----5---5---]
[-----5-|-----5-----5--------5--|---6-------6-|---6-------6---|---5---------]
[-------|-----------------------|-4-----------|-4-----------4-|-3-----------]
[-------|---------5-------------|-------------|---------------|-------------]

 D/E              Bb
[-0-----0---------1-]
[-3-------3-------3-]
[-2---------2-----3-]
[-0---------------3-]
[-------------------]
[-------------------]


[-------|-----------------------|-------------|---------------|-------------]
[-6-----|-5-------------5-------|-------6-----|-------6-------|-------5-----]
[---5---|---5---------5---5-----|-----5---5---|-----5---5-----|-----5---5---]
[-----5-|-----5-----5--------5--|---6-------6-|---6-------6---|---5---------]
[-------|-----------------------|-4-----------|-4-----------4-|-3-----------]
[-------|---------5-------------|-------------|---------------|-------------]

_____________________________________________________________________________

Heavier Guitar Back In
04:43
[-----------h-------------|----------s-----s---s----h p----]
[----5-6---5-6--55-----h--|---5-66--8\10-10\--3\6--5-6-5---]
[-7-----------------5-5-7-|-7----------------------------7-]
[-------------------------|--------------------------------]
[-------------------------|--------------------------------]
[-------------------------|--------------------------------]


[----------h----b-r--------|----------s-----s---s-----------]
[----5----5-6--5---5----h--|---5-66--8\10-10\--3\6--5-6-5---]
[-7----7-------------5-5-7-|-7----------------------------7-]
[--------------------------|--------------------------------]
[--------------------------|--------------------------------]
[--------------------------|--------------------------------]

05:47
[--s---------h--p--------p------|---h--p--------------|------------h--p-----]
[-6\10--11-10-11-10----11-10-10-|-10-11-10--b-r-------|-------10-10-12-10---]
[-------------------12----------|----------12---10-12-|-10-12-------------10]
[-------------------------------|---------------------|---------------------]
[-------------------------------|---------------------|---------------------]
[-------------------------------|---------------------|---------------------]


[----------------|----------|----------|------------|---p------]
[----10-11-13-13-|-11-10-10-|-11-13-10-|-11--13--10-|-11-10----]
[-12-------------|----------|----------|------------|-------12-]
[----------------|----------|----------|------------|----------]
[----------------|----------|----------|------------|----------]
[----------------|----------|----------|------------|----------]

 06:16                            b           b
[-------------------s----------|-15----13-15-15-13-----|-------13-12-13-12--]
[-10-10-11-11--13-13\15-15--15-|----15------------1515-|-13-15--------------]
[------------------------------|-----------------------|--------------------]
[------------------------------|-----------------------|--------------------]
[------------------------------|-----------------------|--------------------]
[------------------------------|-----------------------|--------------------]

    p                              br   p     h
[-13-12-13-12-----br----------s-|-13--13-10-10-12-]
[-------------15-15--15-13-15-\-|-----------------]
[-------------------------------|-----------------]
[-------------------------------|-----------------]
[-------------------------------|-----------------]
[-------------------------------|-----------------]


[-10-----b-13--brp---------10----|----------------]
[----10-13----13--10--b-10----13-|--rbp-------p---]
[--------------------12----------|-12--10-12~~-10-]
[--------------------------------|----------------]
[--------------------------------|----------------]
[--------------------------------|----------------]

06:42
[--b--b----------p-------------------]
[-13-13--13-10-13-10-------p---------]
[--------------------121212-10----10-]
[------------------------------12----]
[------------------------------------]
[------------------------------------]


[---------------------------|---------------|-------------------|
[---p--p--------------------|---------------|--b-rp----PH-whammy|
[-13-12-10---p--p-----------|------------10-|-12---10--12-------|
[----------13-12-10---p--s--|-----s---10----|-------------------|
[-------------------12-10\8-|-8-10\12-------|-------------------|
[---------------------------|---------------|-------------------|


[---------------------------|----10--------------|-10-----b-hold-bend-whammy]
[-10--------rb-----b-whammy-|-10----10-13-whammy-|----10-13--13---13--rp10--]
[----10-12-12--10-12--------|--------------------|--------------------------]
[---------------------------|--------------------|--------------------------]
[---------------------------|--------------------|--------------------------]
[---------------------------|--------------------|--------------------------]

06:54                         slow
[slow----10------b-b--brp---|--b-r-------------b-]
[--b--10----10-13-13-13--10-|-15---15-13-1515-13-]
[-12------------------------|--------------------]
[---------------------------|--------------------]
[---------------------------|--------------------]
[---------------------------|--------------------]


[slow----10-10--------------------------------------]
[--b--10---------brp---b----------------------------]
[-12-----------12-10-12-10--------------------------]
[--------------------------12-10--------h----h----s-]
[--------------------------------12-10-8-10-8-10-8\-]
[---------------------------------------------------]

07:05
[------p--b-------s--------|---s------h---------|-------10-----b-10-10-10-10]
[-----6-5-6--6-8-8\10-8-10-|-10\11--11-13-10-10-|--b-10----10-13------------]
[-5-7----------------------|--------------------|-12------------------------]
[--------------------------|--------------------|---------------------------]
[--------------------------|--------------------|---------------------------]
[--------------------------|--------------------|---------------------------]
                                                              
 07:15         brp      brp         b  brp                   
[-------10-12-12--10-|-12--10-|----12-12--10-]
[-10-10--------------|--------|---e----------]
[--------------------|--------|--k-----------]
[--------------------|--------|-a------------]
[--------------------|--------|r-------------]
[--------------------|--------|--------------]

                        pinch
 07:20          h    b  hold hold hold     p           h    b hold hold
[-10----10-12-12-13-12---12---12---12--|-12-10----10-10-12-12--12---12--]
[----10--------------------------------|-------10-----------------------]
[--------------------------------------|--------------------------------]
[--------------------------------------|--------------------------------]
[--------------------------------------|--------------------------------]
[--------------------------------------|--------------------------------]

07:27 b r         h
[-10-13---10-10-10-12-12-12-|-10-----b-|-10-----b-10-13--b--b-s-]
[---------------------------|----10-13-|----10-13-------13-13-\-]
[---------------------------|----------|------------------------]
[---------------------------|----------|------------------------]
[---------------------------|----------|------------------------]
[---------------------------|----------|------------------------]

07:35
   b r
[-15--13----|----------s-|--b-10-----------|-------------------------------]
[--------15-|-13-15-13-\-|-13-----br-------|--------------b----------------]
[-----------|------------|-------12--10-12-|-10----10-12-10----7-----------]
[-----------|------------|-----------------|----12----------10----------s--]
[-----------|------------|-----------------|---------------------10-8-10\--]
[-----------|------------|-----------------|-------------------------------]

07:34                                 h h                    2 screechy notes
[---------------------|--h-p----h-h--5-6-8--h-p----h-p--b-brb---b-b-r-----]
[--------------h-p----|-5-6-5--5-6-8-------5-6-5--5-6-5-8-8-----8-8--6----]
[---------5-7-5-7-5---|-------------------------------------------------7-]
[--s--5-7-----------7-|---------------------------------------------------]
[-3\5-----------------|---------------------------------------------------]
[---------------------|---------------------------------------------------]

07:52
[---------|--------h-------br-b--------------------------|----s--b-8-brb-]
[---5-----|-5---5-5-6---6--5--5~~~~~~-5---b-r----h-------|-5-6\8-8---8---]
[-5---7~~-|---7-------0------------------7----5-5-7~~~~~-|---------------]
[---------|----------------------------------------------|---------------]
[---------|----------------------------------------------|---------------]
[---------|----------------------------------------------|---------------]

08:11                p
[-rb----h-|-8-6-5-|-6-5---5--p-----------p-----------------|
[-8--6-6-8|-------|-----8---6-5---5-6-8-6-5---5------------|
[---------|-------|-------------7-----------7---5-7---5~~~-|
[---------|-------|---------------------------------7------|
[---------|-------|----------------------------------------|
[---------|-------|----------------------------------------|

08:21
[--------------------]
[-----------h--------]
[---5-7-7--5-7--7~~~-]
[-7------------------]
[--------------------]
[--------------------]

08:26
[--------h---b-r-b----------|----hold---------------------------b-r-]
[-5---5-5-6--5---5~~~~--5~~-|-----b---r---h---------5-6-6--8-10-8---]
[---7-----------------------|-7-5-7----5-5-7~~~~~7~~~~--------------]
[---------------------------|---------------------------------------]
[---------------------------|---------------------------------------]
[---------------------------|---------------------------------------]

08:45              slow down..............
[----h-p------|--h------------------------]
[-6-5-6-5-----|-5-6--5-----h-p------------]
[---------7~~~|--------7--5-7-5---h-------]
[-------------|-----------------5--7-7-7--]
[-------------|---------------------------]
[-------------|---------------------------]

At Last The End Has Come





Comments


Popular Camel tabs & chords
Stationary Traveller Chords
Camelogue Tabs
End Of The Day Tabs
Irish Air Instrumental Reprise Tabs
Lady Fantasy Suite Tabs
Lunar Sea Tabs
Sanctuary Tabs
Selva Tabs
The Great Marsh Tabs
Under The Moon Tabs


Song lyrics



↑ Back to top | Tablatures and chords are parodies/interpretations of the original songs. You may use it for private study, scholarship, research or language learning purposes only
© 2014 AZChords.com Contact us | Privacy policy | DMCA | Add/correct tabs | Request tabs | Top 50 tabs