>
 >
Lady Fantasy Suite

Lady Fantasy Suite Guitar Tabs

Camel - Lady Fantasy Suite chords, tabs, tablatures, lyrics

Guitar lessons | Add/correct | Request | Top 50 tabs Artists:  A B C D E F G H I J K L M N O P Q R S T U V W X Y Z 0-9

Lady Fantasy Suite Guitar Tabs – Camel

CD, Sheet music, Poster

Do you like Lady Fantasy Suite? Share with your friends now
Tabs
Camel
Lady Fantasy
        

 
Intro: 
          
          1 2 3 4  1 2 3 4  1 2 3 4  1 2 3 4  1 2 3 4  1 2 3 4     
        E:--------|--------|--------|--------|--------|--------| 
        B:--------|--------|--------|--------|--------|--------| 
        G:--------|--------|--------|-----89-|10~8~10-|--------| 
        D:7-------|--------|7-------|10------|--------|--------| 
        A:------10|8-------|--------|--------|--------|--------| 
        E:--------|--------|--------|--------|--------|--------| 
          Am    G |F       |D       |F   G G#|Am      |Am      | 
        E:5-----3-|1-------|5-------|1----34-|5-------|--------| 
        B:5-----3-|1-------|7-------|1----34-|5-------|--------| 
        G:5-----4-|2-------|7-------|2----45-|5-------|--------| 
        D:7-----5-|3-------|7-------|3----56-|7-------|--------| 
        A:7-----5-|3-------|5-------|3----56-|7-------|--------| 
        E:5-----3-|1-------|x-------|1----34-|5-------|--------| 
 
          1 2 3 4  1 2 3 4  1 2 3 4  1 2 3 4  1 2 3 4  1 2 3 4  1 2 3 4  
Guitar: E:--------|--------|--------|--------|--------|--------|--------| 
        B:--------|--------|--------|-----89-|10------|--------|--------| 
        G:7-------|--------|7-------|10------|--------|--------|7-------| 
        D:------10|8-------|--------|--------|------10|8-------|--------| 
        A:--------|--------|--------|--------|--------|--------|--------| 
        E:--------|--------|--------|--------|--------|--------|--------| 
          Am    G |F       |D       |F   G G#|Am    G |F       |D       | 
Rythem: E:5-----3-|1-------|5-------|1----34-|5-----3-|1-------|5-------| 
        B:5-----3-|1-------|7-------|1----34-|5-----3-|1-------|7-------| 
        G:5-----4-|2-------|7-------|2----45-|5-----4-|2-------|7-------| 
        D:7-----5-|3-------|7-------|3----56-|7-----5-|3-------|7-------| 
        A:7-----5-|3-------|5-------|3----56-|7-----5-|3-------|5-------| 
        E:5-----3-|1-------|x-------|1----34-|5-----3-|1-------|x-------| 
         
          1 2 3 4  1 2 3 4  1 2 3 4  1 2 3 4  1 2 3 4  1 2 3 4  1 2 3 4  
Guitar: E:--------|--------|--------|--------|--------|--------|--------| 
        B:------89|10------|--------|--------|-----89-|10------|--------| 
        G:10------|--------|--------|7-------|10------|--------|--------| 
        D:--------|------10|8-------|--------|--------|------10|8-------| 
        A:--------|--------|--------|--------|--------|--------|--------| 
        E:--------|--------|--------|--------|--------|--------|--------| 
          F   G G# Am    G |F       |D       |F   G G#|Am    G |F       |   
Rythem: E:1----34-|5-----3-|1-------|5-------|1----34-|5-----3-|1-------| 
        B:1----34-|5-----3-|1-------|7-------|1----34-|5-----3-|1-------| 
        G:2----45-|5-----4-|2-------|7-------|2----45-|5-----4-|2-------| 
        D:3----56-|7-----5-|3-------|7-------|3----56-|7-----5-|3-------| 
        A:3----56-|7-----5-|3-------|5-------|3----56-|7-----5-|3-------| 
        E:1----35-|5-----3-|1-------|x-------|1----34-|5-----3-|1-------| 
 
          1 2 3 4  1 2 3 4  1 2 3 4   
Guitar: E:--------|--------|--------| 
        B:--------|-----89-|10------| 
        G:7-------|10------|--------| 
        D:--------|--------|--------| 
        A:--------|--------|--------| 
        E:--------|--------|--------| 
          D       |F   G G#|Am      | 
Rythem: E:5-------|1----34-|5-------| 
        B:7-------|1----34-|5-------| 
        G:7-------|2----45-|5-------| 
        D:7-------|3----56-|7-------| 
        A:5-------|3----56-|7-------| 
        E:x-------|1----34-|5-------| 
         
 
          1 a 2 a  1 a 2 a  1 a 2 a  1 a 2 a  1 a 2 a  1 a 2 a  1 a 2 a   
          Am       F        G        C        F        Dm       E 
Guitar: E:--------|--------|--------|--------|--------|--------|--------| 
        B:--------|--------|--------|--------|--------|--------|--------| 
        G:----9--9^10----9-|9-7-7---7^9---^7-|--------|7-------|--------| 
        D:--------|--------|------10|--------|10--10--|------10|109-9-6-| 
        A:--------|--------|--------|--------|--------|--------|--------| 
        E:--------|--------|--------|--------|--------|--------|--------| 
 
          1 a 2 a  1 a 2 a  1 a 2 a  1 a 2 a  1 a 2 a  1 a 2 a  1 a 2 a   
          Am       F        G        C        F        Dm       E 
Guitar: E:--------|--------|--------|--------|--------|--------|--------| 
        B:--------|--------|--------|--------|--------|--------|--------| 
        G:----9--9^10----9-|9-7-7---7^9---^7-|--------|7-------|--------| 
        D:7-------|--------|------10|--------|10--10--|------10|109-9-6-| 
        A:--------|--------|--------|--------|--------|--------|--------| 
        E:--------|--------|--------|--------|--------|--------|--------| 
 
           
          nc 
          1 a 2 a  1 a 2 a  1 a 2 a  1 a 2 a   
Organ:  E:--------|--------|--------|--------|  Repeate twice. 
        B:--------|--------|--------|--------| 
        G:545454-4|54-454-4|545454-4|54-----4| 
        D:------7-|--7---7-|------7-|--75757-| 
        A:--------|--------|--------|--------| 
        E:--------|--------|--------|--------| 
 
At the third time guitar joins for two repetitions: 
 
          1 a 2 a  1 a 2 a  1 a 2 a  1 a 2 a   
Guitar: E:--------|--------|--------|--------|  Can also be played on 3rd  
 
and 
        B:53535313|53135313|53535313|53101013|  4th strings. Better tap this 
       
Organ   G:545454-4|54-454-4|545454-4|54-----4|  Repeat twice 
        D:------7-|--7---7-|------7-|--75757-| 
        A:--------|--------|--------|--------| 
        E:--------|--------|--------|--------| 
 
 
Verse Chords: 
          Am    Bm Bm       C     Bm Bm  
          1 a 2 a  1 a 2 a  1 a 2 a  1 a 2 a   
Rythem: E:0-----2-|--------|0-----2-|--------| 
        B:1-----3-|--------|1-----3-|--------| 
        G:2-----4-|--------|0-----4-|--------| 
        D:2-----4-|--------|2-----4-|--------| 
        A:0-----2-|--------|3-----2-|--------| 
        E:x-----x-|--------|x-----x-|--------| 
                  |        |        |        | 
Bass:   G:--------|--------|--------|--------| 
        D:--------|--------|--------|--------| 
        A:--------|--9-----|--10----|--9-----| 
        E:5-----7-|----7---|8---8-7-|----7---| 
 
 
Verse:          Am             Bm|Bm          |C           Bm|Bm    
                Listen very    ca-refully, my  words are   ab-out to un -  
                Am             Bm|Bm          |C           Bm|Bm      
               -fold 
                Am             Bm|Bm          |C           Bm|Bm      
                Concerning a   la-dy I've      seen but I  ne-ver could 
                Am             Bm|Bm          |C           Bm|Bm      
                hold 
                F              C |C           |Am          G |G 
          I can see by your    smile,          Take a long while, 
                Bb                  Am| Am    |G                  F | F   |  
 
F 
                The words that come through, I see that they're true, 
                Am             Bm|Bm          |C           Bm|Bm    
                                               For she re- minds me of  
                Am             Bm|Bm          |C           Bm|Bm    
                you. 
 
                Am             Bm|Bm          |C           Bm|Bm    
          Don't misunder-      stand me, it's  not always  ea-sy to  
                Am             Bm|Bm          |C           Bm|Bm    
                say 
                Am             Bm|Bm          |C              Bm|Bm    
            The words in your  head and your   heart that you ju-st can't  
                Am             Bm|Bm          |C              Bm|Bm 
             ex-plain 
                F              C |C           |Am          G |G 
                I can see      clearly,      A face in the sky, 
                Bb             Am|Am          |G                 F |F   |F 
                Moon's in your eye,     You're passing me        by. 
                Am             Bm|Bm          |C              Bm|Bm           
 
                    
                                               Tell me the    re-ason  
                Am             Bm|Bm          |C              Bm|Bm 
                why. 
 
Repeat the sequence 20 times, using 3/5 bar separation:  
                Am | Bm | C | Bm 
 
                F              C |C           |Am          G |G 
                I can see      clearly,      A face in the sky, 
                Bb             Am|Am          |G                 F |F   |F 
                Moon's in your eye,     You're passing me        by. 
 
 
Now comes a fast section of guitar solo. 
          Am            Bm                  C             D        Bm 
          1 a 2 a 3 a 4 a  1 a 2 a 3 a 4 a  1 a 2 a 3 a 4 a  1 a 2 a 3 a 4 a 
Rythem:  
 
E:0-------------2-|----------------|3-------------5-|------2---------| 
B:1-------------3-|----------------|5-------------7-|------3---------| 
 
G:2-------------4-|----------------|5-------------7-|------4---------| 
D:2-------------4-|----------------|5-------------7-|------4---------| 
A:0-------------2-|----------------|3-------------5-|------2---------| 
E:x-------------x-|----------------|x-------------x-|------x---------| 
                          |                | 
Bass:    
 
G:----------------|----------------|----------------|----------------| 
D:-----------5--4-|----------------|-----------5--7-|----------------| 
A:---------7------|--5-------------|---------7------|------5---------| 
E:5------5--------|----------------|5------5--------|----------------| 
 
Repeat this section for 18 times. The bass line changes sometimes, but this 
is usually what Ferguson plays. The organ solos on the first and last two 
repetitions are based on the bass line. 
 
           
          1 a 2 a 3 a 4 a  1 a 2 a 3 a 4 a  1 a 2 a 3 a 4 a  1 a 2 a 3 a 4 a 
Guitar:  
 
E:5-----------5---|5-----------5---|----------------|--7-------------| 
B:----------------|----------------|7-----------5---|4---------------| 
G:----------------|----------------|----------------|----------------| 
D:----------------|----------------|----------------|----------------| 
A:----------------|----------------|----------------|----------------| 
E:----------------|----------------|----------------|----------------| 
          Am              |F               |G               |Am               
 
| 
Rythem:  
 
E:5---------------|1---------------|3---------------|0---------------| 
B:5---------------|1---------------|5---------------|1---------------| 
G:5---------------|2---------------|5---------------|2---------------| 
D:7---------------|3---------------|5---------------|2---------------| 
A:7---------------|3---------------|3---------------|0---------------| 
E:5---------------|1---------------|x---------------|x---------------| 
           
          Am               F                G                Am 
          1 a 2 a 3 a 4 a  1 a 2 a 3 a 4 a  1 a 2 a 3 a 4 a  1 a 2 a 3 a 4 a 
Guitar:  
 
E:5---------5---5-|5-----------5---|----------------|--5-------------| 
B:----------------|----------------|8-----------6---|5---------------| 
G:----------------|----------------|----------------|----------------| 
           
          Am               F                G                Am               
          1 a 2 a 3 a 4 a  1 a 2 a 3 a 4 a  1 a 2 a 3 a 4 a  1 a 2 a 3 a 4 a 
Guitar:  
 
E:/8---------^10--|8-----------8---|7-----------5---|--7-------------| 
B:----------------|----------------|----------------|5---------------| 
G:----------------|----------------|----------------|----------------| 
           
          Am               F                G                Am               
          1 a 2 a 3 a 4 a  1 a 2 a 3 a 4 a  1 a 2 a 3 a 4 a  1 a 2 a 3 a 4 a 
Guitar:  
 
E:5----------5--5-|5-----------5---|----------------|--7-------------| 
B:----------------|----------------|8-----------6---|5---------------| 
G:----------------|----------------|----------------|----------------| 
 
          1 a 2 a 3 a 4 a  1 a 2 a 3 a 4 a  1 a 2 a 3 a 4 a  1 a 2 a 3 a 4 a 
Organ :  
 
E:----------------|----------------|----------------|----------------| 
B:----------------|----------------|----------------|----------------| 
G:8-----------7-5-|7---------------|7-----------5---|5---------------| 
D:----------------|--------7-------|--------------8-|--------6-------| 
A:----------------|----------------|----------------|----------------| 
E:----------------|----------------|----------------|----------------| 
          D#              |D               |A#              |G#               
 
| 
Rythem:  
 
E:6---------------|5---------------|6---------------|4---------------| 
B:8---------------|7---------------|6---------------|4---------------| 
G:8---------------|7---------------|7---------------|5---------------| 
D:8---------------|7---------------|8---------------|6---------------| 
A:6---------------|5---------------|8---------------|6---------------| 
E:x---------------|x---------------|6---------------|4---------------| 
 
          1 a 2 a 3 a 4 a  1 a 2 a 3 a 4 a  1 a 2 a 3 a 4 a  1 a 2 a 3 a 4 a 
Organ :  
 
E:----------------|----------------|----------------|----------------| 
B:----------------|----------------|----------------|----------------| 
G:----------------|----------------|----------------|-----------5--7-| 
D:6-----------5---|8-----------7---|9---------------|--------9-------| 
A:--------------6-|--------------8-|----------------|----------------| 
E:----------------|----------------|----------------|----------------| 
          G#              |A#              |E               |E                
 
| 
Rythem:  
 
E:4---------------|6---------------|7---------------|7---------------| 
B:4---------------|6---------------|9---------------|9---------------| 
G:5---------------|7---------------|9---------------|9---------------| 
D:6---------------|8---------------|9---------------|9---------------| 
A:6---------------|8---------------|7---------------|7---------------| 
E:4---------------|6---------------|x---------------|x---------------| 
 
          1 a 2 a 3 a 4 a  1 a 2 a 3 a 4 a  1 a 2 a 3 a 4 a  1 a 2 a 3 a 4 a 
Organ :  
 
E:----------------|----------------|----------------|----------------| 
B:----------------|----------------|----------------|----------------| 
G:8-----------7-5-|7---------------|7-----------5---|5---------------| 
D:----------------|--------7-------|--------------8-|--------6-------| 
A:----------------|----------------|----------------|----------------| 
E:----------------|----------------|----------------|----------------| 
          D#              |D               |A#              |G#               
 
| 
Rythem:  
 
E:6---------------|5---------------|6---------------|4---------------| 
B:8---------------|7---------------|6---------------|4---------------| 
G:8---------------|7---------------|7---------------|5---------------| 
D:8---------------|7---------------|8---------------|6---------------| 
A:6---------------|5---------------|8---------------|6---------------| 
E:x---------------|x---------------|6---------------|4---------------| 
 
          1 a 2 a 3 a 4 a  1 a 2 a 3 a 4 a  1 a 2 a 3 a 4 a   
Organ : E:----------------|----------------|----------------| 
        B:----------------|----------------|----------------| 
        G:----------------|----------------|5---------------| 
        D:6-----------5---|8-----------7---|--------9-------| 
        A:--------------6-|--------------8-|----------------| 
        E:----------------|----------------|----------------| 
          G#              |A#              |E               | 
Rythem: E:4---------------|6---------------|7---------------| 
        B:4---------------|6---------------|9---------------| 
        G:5---------------|7---------------|9---------------| 
        D:6---------------|8---------------|9---------------| 
        A:6---------------|8---------------|7---------------| 
        E:4---------------|6---------------|x---------------| 
 
          1 a 2 a 3 a 4 a  1 a 2 a 3 a 4 a  1 a 2 a 3 a 4 a  1 a 2 a 3 a 4 a 
Guitar:  
 
E:5-----------5---|5-----------5---|----------------|--7-------------| 
B:----------------|----------------|7-----------5---|4---------------| 
G:----------------|----------------|----------------|----------------| 
D:----------------|----------------|----------------|----------------| 
A:----------------|----------------|----------------|----------------| 
E:----------------|----------------|----------------|----------------| 
          Am              |F               |G               |Am               
 
| 
Rythem:  
 
E:5---------------|1---------------|3---------------|0---------------| 
B:5---------------|1---------------|5---------------|1---------------| 
G:5---------------|2---------------|5---------------|2---------------| 
D:7---------------|3---------------|5---------------|2---------------| 
A:7---------------|3---------------|3---------------|0---------------| 
E:5---------------|1---------------|x---------------|x---------------| 
 
          Am               F                G                Am 
          1 a 2 a 3 a 4 a  1 a 2 a 3 a 4 a  1 a 2 a 3 a 4 a  1 a 2 a 3 a 4 a 
Guitar:  
 
E:5----------5--5-|5-----------5---|----------------|--7-------------| 
B:----------------|----------------|8-----------6---|5---------------| 
G:----------------|----------------|----------------|----------------| 
           
          Am               F                G                Am               
          1 a 2 a 3 a 4 a  1 a 2 a 3 a 4 a  1 a 2 a 3 a 4 a  1 a 2 a 3 a 4 a 
Guitar:  
 
E:/8---------^10--|8-----------8---|7-----------5---|--7-------------| 
B:----------------|----------------|----------------|5---------------| 
G:----------------|----------------|----------------|----------------| 
           
          Am               F                G                Am               
          1 a 2 a 3 a 4 a  1 a 2 a 3 a 4 a  1 a 2 a 3 a 4 a  1 a 2 a 3 a 4 a 
Guitar:  
 
E:5----------5--5-|5-----------5---|----------------|--5-------------| 
B:----------------|----------------|8-----------6---|5---------------| 
G:----------------|----------------|----------------|----------------| 
 
Quiet section: 
          Am                           G    F                            G 
          1 a 2 a 3 a 4 a  1 a 2 a 3 a 4 a  1 a 2 a 3 a 4 a  1 a 2 a 3 a 4 a 
Bass:    
 
G:2-2-2---2---2---|2-2-2---2-------|----------------|----------------| 
D:----------------|------------5---|3-3-3---3---3---|3-3-3---3---5---| 
A:----------------|----------------|----------------|----------------| 
E:----------------|----------------|----------------|----------------| 
           
Repeat twice. 
 
          1 a 2 a 3 a 4 a  1 a 2 a 3 a 4 a  1 a 2 a 3 a 4 a  1 a 2 a 3 a 4 a 
          Am                           G    F                            G  
Guitar:  
 
E:----------------|----------------|----------------|----------------| 
B:----------------|----------------|5-----5-6-------|----------------| 
G:----------------|4-------5-------|------------7---|----------------| 
D:--------7-------|----------------|----------------|----------------| 
A:----------------|----------------|----------------|----------------| 
E:----------------|----------------|----------------|----------------| 
           
          1 a 2 a 3 a 4 a  1 a 2 a 3 a 4 a  1 a 2 a 3 a 4 a  1 a 2 a 3 a 4 a 
          Am                           G    F                            G  
Guitar:  
 
E:----------------|----------------|----------------|----------------| 
B:----------------|----------------|----------------|----------------| 
G:7-----7/9---5---|----------------|4-5-------------|----------------| 
D:----------------|----------------|----7---7-------|----------------| 
A:----------------|----------------|----------------|----------------| 
E:----------------|----------------|----------------|----------------| 
 
          1 a 2 a 3 a 4 a  1 a 2 a 3 a 4 a  1 a 2 a 3 a 4 a  1 a 2 a 3 a 4 a 
          Am                           G    F                            G  
Guitar:  
 
E:----------------|----------------|----------------|----------------| 
B:----------------|----------------|5-----5-6-------|----------------| 
G:----------------|4-------5-------|------------7---|----------------| 
D:--------7-------|----------------|----------------|----------------| 
A:----------------|----------------|----------------|----------------| 
E:----------------|----------------|----------------|----------------| 
           
          1 a 2 a 3 a 4 a  1 a 2 a 3 a 4 a  1 a 2 a 3 a 4 a  1 a 2 a 3 a 4 a 
          Am                           G    F                            G  
Guitar:  
 
E:----------------|----------------|----------------|----------------| 
B:----------------|----------------|----------------|--------5-6---5-| 
G:7-----7/9---5---|----------------|4-5-------------|--4-5-7-----7---| 
D:----------------|----------------|----7---7-------|----------------| 
A:----------------|----------------|----------------|----------------| 
E:----------------|----------------|----------------|----------------| 
           
          1 a 2 a 3 a 4 a  1 a 2 a 3 a 4 a  1 a 2 a 3 a 4 a  1 a 2 a 3 a 4 a 
          Am                             G    F                            G  
Guitar:  
 
E:----------------|----------------|----------------|----------------| 
B:5-6---5---------|----5-6-67656---|5---------------|----------------| 
G:----7---5-7---4-|5-7-----------7-|--5-7---4-5-7^9-^9-------7-5-7---| 
D:------------7---|----------------|------7---------|--------------7-| 
A:----------------|----------------|----------------|----------------| 
E:----------------|----------------|----------------|----------------| 
 
          1 a 2 a 3 a 4 a  1 a 2 a 3 a 4 a  1 a 2 a 3 a 4 a  1 a 2 a 3 a 4 a 
          Am                           G    F                            G  
Guitar:  
 
E:----------------|3-5-------------|----------------|----------------| 
B:------6-5---5-6-|----5-6-3-5-----|----------------|----------------| 
G:5-4-------7-----|------------5-7-|----------------|----------------| 
D:----7-----------|----------------|7---------------|--------7-------| 
A:----------------|----------------|----------------|----------------| 
E:----------------|----------------|----------------|----------------| 
 
          1 a 2 a 3 a 4 a  1 a 2 a 3 a 4 a  1 a 2 a 3 a 4 a  1 a 2 a 3 a 4 a 
          Am                           G    F                            G  
Guitar:  
 
E:----------------|----------------|----------------|----------------| 
B:----------------|----------------|----------------|----------------| 
G:----------------|--------7-------|----------------|----------------| 
D:7---------------|----------------|7---------------|--------10------| 
A:----------------|----------------|----------------|----------------| 
E:----------------|----------------|----------------|----------------| 
 
          1 a 2 a 3 a 4 a  1 a 2 a 3 a 4 a  1 a 2 a 3 a 4 a  1 a 2 a 3 a 4 a 
          Am                           G    F                            G  
Guitar:  
 
E:----------------|----------------|----------------|----------------| 
B:----------------|----------------|----------------|----------------| 
G:----------------|--------7-------|----------------|----------------| 
D:7---------------|----------------|7---------------|--------7-------| 
A:----------------|----------------|----------------|----------------| 
E:----------------|----------------|----------------|----------------| 
 
The feed-back guitar goes on for 3 more cycles of the Am-F sequence, and the 
bass line comes back. 
 
                Am        |Am         G |F          |F         G  
                   Saw you riding on  a  moon cloud,                 
                Am        |Am         G |F          |F         G  
                   Saw you walking on a  whirlpool,               
                Am        |Am           |D          |D            
                  From the corner of my  eye, 
                E7        |E7           |F          |F         G  
                I                        saw you. 
 
                Am        |Am         G |F          |F         G  
                   Saw you sitting on a  sunbeam, 
                Am        |Am         G |F          |F         G  
                    In the middle of  my daydream, 
                Am        |Am           |D          |D            
                     Oh my Lady Fanta-   sy, 
                E7        |E7           |F          |F         G  
                I                        love you. 
 
Last Manic Instrumental Solos: 
        Am | Am | F | F 
 
Play this sequence 14 times for the Guitar solo, and 21 times for the Organ  
solo. 
 
Climax: 
        Am | Am | A# | D# E 
        Am | Am | A# | D# E 
        Am | Am | A# | D# E 
        Am | Am | A# | D# E | E 
 
Grand finale: 
 
          1 a 2 a  1 a 2 a  1 a 2 a  1 a 2 a  1 a 2 a  1 a 2 a  1 a 2 a   
          Am       F        G        C        F        Dm       E 
Guitar: E:--------|--------|--------|--------|--------|--------|--------| 
        B:--------|--------|--------|--------|--------|--------|--------| 
        G:----9--9^10----9-|9-7-7---7^9---^7-|--------|7-------|--------| 
        D:--------|--------|------10|--------|10--10--|------10|109-9-6-| 
        A:--------|--------|--------|--------|--------|--------|--------| 
        E:--------|--------|--------|--------|--------|--------|--------| 
 
          1 a 2 a  1 a 2 a  1 a 2 a  1 a 2 a  1 a 2 a  1 a 2 a  1 a 2 a   
          Am       F        G        C        F        Dm       E 
Guitar: E:--------|--------|--------|--------|--------|--------|--------| 
        B:--------|--------|--------|--------|--------|--------|--------| 
        G:----9--9^10----9-|9-7-7---7^9---^7-|--------|7-------|--------| 
        D:7-------|--------|------10|--------|10--10--|------10|109-9-6-| 
        A:--------|--------|--------|--------|--------|--------|--------| 
        E:--------|--------|--------|--------|--------|--------|--------| 
           
          1 a 2 a  1 a 2 a  1 a 2 a  1 a 2 a  1 a 2 a  1 a 2 a  1 a 2 a   
          Am       F        G        C        F        Dm       E 
Guitar: E:--------|--------|--------|--------|--------|--------|--------| 
        B:--------|--------|--------|--------|--------|--------|--------| 
        G:----9--9^10-----10^12--v10|9---/109|7-----79|7------7|--------| 
        D:7-------|--------|--------|--------|----10--|-----10-|9-109~6-| 
        A:--------|--------|--------|--------|--------|--------|--------| 
        E:--------|--------|--------|--------|--------|--------|--------| 
 
          1 a 2 a  1 a 2 a  1 a 2 a  1 a 2 a  1 a 2 a  1 a 2 a  1 a 2 a   
          Am       F        G        C        F        Dm       E 
Guitar: E:--------|--------|--------|--------|--------|--------|--------| 
        B:--------|--------|--------|--------|--------|--------|--------| 
        G:----9--9^10----9-|9-7/9-12-7^9---7-|--------|7-------|--------| 
        D:7-------|--------|--------|--------|10--10--|------10|109-9-6-| 
        A:--------|--------|--------|--------|--------|--------|--------| 
        E:--------|--------|--------|--------|--------|--------|--------| 
           
          Am 
Guitar: E:--------| 
        B:--------| 
        G:--------| 
        D:7-------| 
        A:--------| 
        E:--------| 
 
_______________________________________________________ 





Comments


Popular Camel tabs & chords
Air Born Chords
Eyes Of Ireland Chords
Echoes Intro Tabs
End Of The Day Tabs
End Peace Tabs
Ice Intro Tabs
Never Let Go 1 Tabs
Selva Tabs
Snow Goose 1 Tabs
Rajaz Ukulele


Song lyrics



↑ Back to top | Tablatures and chords are parodies/interpretations of the original songs. You may use it for private study, scholarship, research or language learning purposes only
© 2014 AZChords.com Contact us | Privacy policy | DMCA | Add/correct tabs | Request tabs | Top 50 tabs