>
 >
Never Let Go

Never Let Go Guitar Tabs

Camel - Never Let Go chords, tabs, tablatures, lyrics

Guitar lessons | Add/correct | Request | Top 50 tabs Artists:  A B C D E F G H I J K L M N O P Q R S T U V W X Y Z 0-9

Never Let Go Guitar Tabs – Camel

CD, Sheet music, Poster

Do you like Never Let Go? Share with your friends now
Bass TabsTabsTabs v2
intro
 
e|-----7-----5-----3-----5-----0---|---------------------------------|
B|-------0-----0-----0-----0-----0-|---------------------------------|
G|---------0-----0-----0-----0-----|-----4-----2-----0-----2---------|
D|---------------------------------|-------2-----2-----2-------2-----|
A|---------------------------------|-3-------3-----3-----3-------3---|
E|-0-------------------------------|---------------------------------|
  
e|---------------------------------|---------------------------------|
B|---------------------------------|---------------------------------|
G|-----2-----0-----------0---------|-----2-----0-----4-----0-0h2-----|
D|-------0-----0---4---------4-----|-------0-----0-----0---------0h2-|
A|-2-------2-----2---2-2-------2---|-2h3-----3-----3-----3-----------|
E|---------------------------------|---------------------------------|


 break

e|-0---------------------|
B|-0---------------------|
G|-0---------------------|
D|-2---------------------|
A|-2---------------------|
E|-0---------------------|


 verse 

e|-0---------------|-2---------------|
B|---0-------------|---0-------------|
G|-----5-----------|-----4-----------|
D|-------5---------|-------4---------|
A|-----------------|-----------------|
E|-----------------|-----------------|


 pre-chorus

e|---------0-------|---------0-------|
B|-------3---3-----|-------3---------|
G|-----0-------0---|-----4-----------|
D|---2-----------2-|---4-------------|
A|-3---------------|-2---------------|
E|-----------------|-----------------|


 chorus

e|-----0-----------|-----0-----------|-----0-----------|-----0-----------|
B|-----0-----------|-----1-----------|-----3-----------|-----1-----------|
G|-----0-----------|-0---0-----------|-4---4-----------|-0---0-----------|
D|-2---2-----------|-2---2-----------|-4---4-----------|-2---2-----------|
A|-2---2-----------|-3---3-----------|-2---2-----------|-3---3-----------|
E|-0---0-----------|-----------------|-----------------|-----------------|



 after 1st chorus 

e|-----<12>--------------|
B|---<12>----------------|
G|-<12>------------------|
D|-----------------------|
A|-----------------------|
E|-----------------------|


 after 2nd chorus

e|-3--3--3--3--3--3--3--3--|-5--5--5--5--5--5--5--5--|
B|-3--3--3--3--3--3--3--3--|-3--3--3--3--3--3--3--3--|
G|-4--4--4--4--4--4--4--4--|-4--4--4--4--4--4--4--4--|
D|-------------------------|-------------------------|
A|-------------------------|-------------------------|
E|-------------------------|-------------------------|



 flute solo

e|-----------------------------------------|----------------------------|
B|-------------------12---12-----12---13---|-15---12--13-----12---------|
G|-------11-12-14-15----------14-----------|-------------14------12-14--|
D|----14-----------------------------------|----------------------------|
A|-----------------------------------------|----------------------------|
E|-----------------------------------------|----------------------------|
 | 
 | 2nd time unisono
e|-----------------------------------------|-13-------12----------------|
B|-----------------------------------------|------15-----13--15--12-13--|
G|-----------------------------------------|----------------------------|
D|-----------------------------------------|----------------------------|
A|-----------------------------------------|----------------------------|
E|-----------------------------------------|----------------------------|


e|------12-----------------------------------|
B|--------------15------12-------------------|
G|------------------------------15---14-12---|
D|-14--------14------14------14--------------|
A|-------------------------------------------|
E|-------------------------------------------|


e|-----------------------------------------------|
B|-------12-------13-------15-------17-----------|
G|----12-------14-------16-------17--------------|
D|-14-------15-------17-------19-----------------|
A|-----------------------------------------------|
E|-----------------------------------------------|
 | 
 | 
e|-------12-------13-------15-------17-----------|
B|----12-------13-------15-------17----19--------|
G|-12-------14-------16-------17-----------------|
D|-----------------------------------------------|
A|-----------------------------------------------|
E|-----------------------------------------------|


e|-----------------------------------------------|
B|-------10-------12-------13-------15-----------|
G|----10-------12-------14-------16--------------|
D|-12-------14-------15-------17-----------------|
A|-----------------------------------------------|
E|-----------------------------------------------|
 | 
 | 
e|-------10-------12-------13-------15-----------|
B|----10-------12-------13-------15----17--------|
G|-10-------12-------14-------16-----------------|
D|-----------------------------------------------|
A|-----------------------------------------------|
E|-----------------------------------------------|


 

e|----------12--|--------------|--------------|--------------|
B|-15-----------|-13-------15--|-12-----------|--------------|
G|--------------|--------------|----------12--|--------------|
D|--------------|--------------|--------------|-15-----------|
A|--------------|--------------|--------------|--------------|
E|--------------|--------------|--------------|--------------|


 mellotron solo

e|------------------------|----------------------|
B|------------------------|----------------------|
G|------------------------|------12---------14---|
D|-14---12----------12-14-|-15------15---12------|
A|---------15-14-15-------|----------------------|
E|------------------------|----------------------|

				         2/4       4/4
e|------------|------------|------------|---------|-12---------|-----------|
B|---------12-|---------13-|-12------15-|-13--15--|------15-13-|-12--------|
G|-12---------|-14---------|------------|---------|------------|-----14-12-|
D|------14----|------14----|------14----|---------|------------|-----------|
A|------------|------------|------------|---------|------------|-----------|
E|------------|------------|------------|---------|------------|-----------|


  mellotron
e|---------------------|---------------------|
B|---------------------|---------------------|
G|---------------------|-12------------------|
D|-14------------------|---------------------|
A|---------------------|---------------------|
E|---------------------|---------------------|
 |
 |hammond
e|---------------------|---------------------|
B|---------------------|---------------------|
G|---------------------|---------------------|
D|---------------------|---------------------|
A|------------12-14-15-|------------12-14-15-|
E|-12---14-15----------|-12---14-15----------|


e|---------------------|-12------------------|
B|-12------------------|---------------------|
G|---------------------|---------------------|
D|---------------------|---------------------|
A|---------------------|---------------------|
E|---------------------|---------------------|
 |
 |
e|---------------------|---------------------|
B|---------------------|---------------------|
G|---------------------|---------------------|
D|---------------------|---------------------|
A|------------12-14-15-|------------12-14-15-|
E|-12---14-15----------|-12---14-15----------|



 guitar solo

e|---------------------------------|---------------------------------|
B|---------------------------------|---------------------------------|
G|-12------------11-12--11-----11--|-12---------------11--12--14b16--|
D|--------------------------14-----|---------------------------------|
A|---------------------------------|---------------------------------|
E|---------------------------------|---------------------------------|

e|---------------------------------|---------------------------------|
B|---------------------------------|---------------------------------|
G|-14-------12--11----------12b14--|-12-------11---------------------|
D|----------------------14---------|--------------14b16--------14p12-|
A|---------------------------------|---------------------------------|
E|---------------------------------|---------------------------------|

e|---------------------------------|---------------------------------|
B|---------------------------------|---------------------------------|
G|---------------------------------|---------------------------------|
D|-14b16----14b16------------14p12-|-14b16----14b16-----15r14----12--|
A|---------------------------------|---------------------------------|
E|---------------------------------|---------------------------------|

e|---------------------------------|---------------------------------|
B|---------------------------------|---------------------------------|
G|---------------------------------|---------------------------12----|
D|-12h14----14---------12h14-------|-12------------------12h14-------|
A|---------------12h14-------12h14-|---------------------------------|
E|---------------------------------|---------------------------------|

e|---------------------------------|---------------------------------|
B|-13--12------------------15--13--|----12-------------------13--12--|
G|-------------14------12----------|-------------14------12----------|
D|---------------------------------|---------------------------------|
A|---------------------------------|---------------------------------|
E|---------------------------------|---------------------------------|

e|---------------------------------|---------------------------------|
B|---------------------------------|---------------------------------|
G|-----14------12------11--12b14---|-12--------------12--14--14b16---|
D|---------------------------------|-----14--------------------------|
A|---------------------------------|---------------------------------|
E|---------------------------------|---------------------------------|

e|---------------------------------|---------------------------------|
B|----------------15---------------|---------------------------------|
G|-14b16----14b16-----14b16--------|-14--12--14--14b16-------14--12--|
D|---------------------------------|---------------------------------|
A|---------------------------------|---------------------------------|
E|---------------------------------|---------------------------------|

e|---------------------------------|-12------------------------------|
B|-------------------------15b17---|---------15b17---------(16)b17---|
G|-15r14----12---------12----------|---------------------------------|
D|--------------14-----------------|---------------------------------|
A|---------------------------------|---------------------------------|
E|---------------------------------|---------------------------------|

e|-12------------------------------|---------------------------------|
B|---------15--13--12--------------|---------------------------------|
G|---------------------14--12--11--|-----------------12h14--12--11---|
D|---------------------------------|-----14--12h14-------------------|
A|---------------------------------|---------------------------------|
E|---------------------------------|---------------------------------|

e|---------------------------------|---------------------------------|
B|---------------------------------|---------------------------------|
G|---------------------------------|---------------------------14b16-|
D|-14------12h14-----------12h14---|-14-------------12---------------|
A|-----------------12h14-----------|---------12h14-------------------|
E|---------------------------------|---------------------------------|
								
e|--------12--------------12-------|----------12------12----------------|
B|----12------12--15b17------15-12-|-------12----15------15-12----------|
G|---------------------------------|-14b16---------------------15r14-12-|
D|---------------------------------|------------------------------------|
A|---------------------------------|------------------------------------|
E|---------------------------------|------------------------------------|

e|-------------------------------------12|-----12----------------12-------12|
B|-----------------------------------12--|-15-----15-12----15b17----15b17---|
G|-14-12---------------------12-14b16----|----------------------------------|
D|-------14--14--------12h14-------------|----------------------------------|
A|---------------12h14-------------------|----------------------------------|
E|---------------------------------------|----------------------------------|


e|-------12-12-------12-12-------12-12-------12-12-|
B|-15b17-------15b17-------15b17-------15b17-------|
G|-------------------------------------------------|
D|-------------------------------------------------|
A|-------------------------------------------------|
E|-------------------------------------------------|

e|-------12-12-------12-12-------12-12-------12-12-|
B|-15b17-------15b17-------15b17-------15b17-------|
G|-------------------------------------------------|
D|-------------------------------------------------|
A|-------------------------------------------------|
E|-------------------------------------------------|

e|-15b17---15b17---15b17---15b17---|-15--12--------------15----------|
B|---------------------------------|---------15--15b17-------15b17---|
G|---------------------------------|---------------------------------|
D|---------------------------------|---------------------------------|
A|---------------------------------|---------------------------------|
E|---------------------------------|---------------------------------|

e|---------------------------------|--------------------------12-----|
B|-15b17---15--12--14------12------|--------12------------12------12-|
G|---------------------14----------|----14------12--14b16------------|
D|---------------------------------|---------------------------------|
A|---------------------------------|---------------------------------|
E|---------------------------------|---------------------------------|

e|---------15------17b19---17b19---|-17b19--15------------15---15b17-|
B|-15b17-------15------------------|------------17--17---------------|
G|---------------------------------|---------------------------------|
D|---------------------------------|---------------------------------|
A|---------------------------------|---------------------------------|
E|---------------------------------|---------------------------------|

e|---15--12--------12--------|-------------------------------------|
B|-----------15---------15---|--------15---------------------------|
G|---------------------------|-14b16------14b16r14--12-14--12------|
D|---------------------------|---------------------------------12--|
A|---------------------------|-------------------------------------|
E|---------------------------|-------------------------------------|

e|-------------------------------------|
B|-------------------------------------|
G|-----12b14r12--12--14----12h14p12-12-|
D|-14----------------------------------|
A|-------------------------------------|
E|-------------------------------------|





Comments


Popular Camel tabs & chords
Mystic Queen Bass Tabs
Stationary Traveller Bass Tabs
Eyes Of Ireland Chords
Echoes Intro 1 Tabs
Harbour Of Tears Tabs
Hymn To Her Tabs
Ice Intro Tabs
Six Ate Tabs
Snow Goose Opening Tabs
Stationary Traveller Live Tabs


Song lyrics



↑ Back to top | Tablatures and chords are parodies/interpretations of the original songs. You may use it for private study, scholarship, research or language learning purposes only
© 2014 AZChords.com Contact us | Privacy policy | DMCA | Add/correct tabs | Request tabs | Top 50 tabs