» » »

Camel, Ice Tabs (ver.1)

Artists:  A B C D E F G H I J K L M N O P Q R S T U V W X Y Z # 

Ice Tabs (ver.1)

Camel Tabs
 Rating:
4/5 (4 votes)
Ice lessons Tabs too difficult? Try these video lessons and learn fast
                (Intro)
Instrumental
Transc... by.. Maurito
Enjoy it


  ==============================================
             TABLATURE EXPLANATION
  ==============================================
           H     -Hammering on
           P     -Pulling off
           _S__  -Slide
           U     -UP (bending or chocking)
           UD    -Up & Down
           UD P  -UP & Down & Pulling off
           ph    -Picking Harmonics
          ^^^^   -Vibrato 
  ==============================================



       ^^^        ^^^      _s__  ^^^    _s__  ^^^
e--------------------|------------------------------------|   
b----5-6----6-5------|----5---6-(6)----8---10-(10)---5----|
g--7------------5-7--|--7------------------------------7--|
d--------------------|------------------------------------|
a--------------------|------------------------------------|
e--------------------|------------------------------------|


      ^^^        ^^^      _s__  ^^^    _s__  ^^^
e--------------------|------------------------------------|
b----5-6----6-5------|----5---6-(6)----8---10-(10)---5----|
g--7------------5-7--|--7------------------------------7--|
d--------------------|------------------------------------|
a--------------------|------------------------------------|
e--------------------|------------------------------------|
  
                                             P H P
---------5----|--------------------5-----|----------------|
---6--8----5--|--5--6--5-----6--8-----5--|--6-5-6-5-------|
--------------|-----------7--------------|-----------7----|
--------------|--------------------------|----------------|
--------------|--------------------------|----------------|

            H P                                     _S__
-5--8--6-5-6-5----5--|--10--8-8---8--6--5-----------------|
----------------8----|---------------------8--6--5--6--8--|
---------------------|------------------------------------|
---------------------|------------------------------------|
---------------------|------------------------------------|
---------------------|------------------------------------|

                P H P
--------5------------------|------------------------------|
--6--8----5----6-5-6-5-----|------------------------------|
------------------------7--|------------------------------|
---------------------------|------------------------------|
---------------------------|------------------------------|
---------------------------|------------------------------|



     ^^^        ^^^      _s__  ^^^    _s__  ^^^
e--------------------|------------------------------------|   
b----5-6----6-5------|----5---6-(6)----8---10-(10)---5----|
g--7------------5-7--|--7------------------------------7--|
d--------------------|------------------------------------|
a--------------------|------------------------------------|
e--------------------|------------------------------------|


      ^^^        ^^^      _s__  ^^^    _s__  ^^^
e--------------------|------------------------------------|
b----5-6----6-5------|----5---6-(6)----8---10-(10)---5----|
g--7------------5-7--|--7------------------------------7--|
d--------------------|------------------------------------|
a--------------------|------------------------------------|
e--------------------|------------------------------------|

  ^^^^^^^^^    U  D        ^^^                  U       ^^^
--12---------12-(13)-(12)--10--|--13--12--8-----------------|
-------------------------------|------------8--9-(11)--9-(9)|
-------------------------------|----------------------------|
-------------------------------|----------------------------|
-------------------------------|----------------------------|
-------------------------------|----------------------------|

                ^^^^^        U          ^^^^
-------------|--12-----12--12-(13)--12--10--|
--11--9--8---|------------------------------|
-------------|------------------------------|
-------------|------------------------------|
-------------|------------------------------|
-------------|------------------------------|

                 U      ^^^
--13--12--8-----------------|------------|------------------|
------------8--(9)11--9--9--|--11--9--8--|------------------|
----------------------------|------------|------------------|
----------------------------|------------|--Keyboard solo---|
----------------------------|------------|------------------|
----------------------------|------------|------------------|
            
Submit corrections

comments powered by Disqus
↑ Back to top | Camel Tabs for Ice. Lyrics for acoustic guitar and electric guitar. Tablatures and chords are parodies/interpretations of the original songs. You may use it for private study, scholarship, research or language learning purposes only