>
 >
Certainty Corpses Bleed Cold

Certainty Corpses Bleed Cold Guitar Tabs

Caliban - Certainty Corpses Bleed Cold chords, tabs, tablatures, lyrics

Guitar lessons | Add/correct | Request | Top 50 tabs Artists:  A B C D E F G H I J K L M N O P Q R S T U V W X Y Z 0-9

Certainty Corpses Bleed Cold Guitar Tabs – Caliban

CD, Sheet music, Poster

Do you like Certainty Corpses Bleed Cold? Share with your friends now
Bass TabsTabsTabs v2
and:  (Caliban)

Copyright (c)  (Radrunnder Records) (2004)
Version 1.0 - (23.Nov.2004)



.  - palm mute           /  - slide up to
\  - slide down to       ~  - vibrato
h  - hammer on           b  - Bend
p  - pull off            Suffixes for bend
t  - tap                 f  - full bend    h - half bend
ph - pinched harmonic    q  - quarter bend t - tap bend
*  - see comment         ^  - Hold bend    r release bend
x  - Stuccatto           ~  - vibrato bend
,  - slight palm mute    () - ghost note, sustained note
"  - tremolo note        <> - Trill

Tunning C G D# A# F C

    Chours                                                                  3x

C ||------------------------|-----------------------|--------------------------|
G ||------------------------|-----------------------|--------------------------|
D#||------------------------|-----------------------|--------------------------|
A#||------------------------|-----------5--------5--|--5-5-----5-5-5-----------|
F ||--2------2--2-2-----2-2-|--2--4--5--3--------3--|--3-3-----3-3-3--4--5--2--|
C ||--0------0--0-0-----0-0-|--0--2--3--------------|-----------------2--3--0--|





                                                                     last time

C ||-----------------------|-----------------------|-------------------------|
G ||-----------------------|-----------------------|-------------------------|
D#||-----------------------|-----------------------|-------------------------|
A#||-----------------------|-----------5--------5--|--5-5-----5-5-5----------|
F ||--------2--2-2-----2-2-|--2--4--5--3--------3--|--3-3-----3-3-3--4--5----|
C ||--------0--0-0-----0-0-|--0--2--3--------------|-----------------2--3----|

 Verse

C ||----------------------------------|
G ||----------------------------------|
D#||----------------------------------|
A#||----------------------------------|
F ||--7-8---7-8---7-8---5---3-5---3-5-|
C ||------0-----0-----8---0-----0-----|



C ||--------------------------------------------------|
G ||------------------------------------------4h5h6h7-|
D#||----------------------------------2h3h4h5---------|
A#||--------------------------2h3h4h5-----------------|
F ||--7-8---7-8---7-8-2h3h4h5-------------------------|
C ||------0-----0-------------------------------------|



C ||----------------------------------|
G ||----------------------------------|
D#||----------------------------------|
A#||----------------------------------|
F ||--7-8---7-8---7-8---5---3-5---3-5-|
C ||------0-----0-----8---0-----0-----|


C ||--------------------------------------------------|
G ||--------------------------------------------------|
D#||--------------------------------------------------|
A#||--------------------------------------------------|
F ||--7-8---7-8---7-8-----------------1-1-1-1---------|
C ||------0-----0-----2-2-2-2-3-3-3-3---------2-2-2-2-|




    Riff 3

C ||--------------------------------------------------|
G ||--------------------------------------------------|
D#||--------------------------------------------------|
A#||--------------------------------------------------|
F ||------------------2--------------------------2----|
C ||--0-0-0-0-0-0-0-0-0--0-0-0-0-0-0-0-0-0-0-0-0-0----|



C ||--------------------------------------------8--7--|
G ||--------------------------------------------------|
D#||--------------------------------------------------|
A#||--------------------------------------------------|
F ||------------------2--------------------------2----|
C ||--0-0-0-0-0-0-0-0-0--0-0-0-0-0-0-0-0-0-0-0-0-0----|






C ||--------------------------------------|
G ||--------------------------------------|
D#||--------------------------------------|
A#||-----------------------5--------------|
F ||------------------2----3----5----4----|
C ||--0-0-0-0-0-0-0-0-0---------3----2----|


Chours


Under Solo


C ||--------------------------------------------------|
G ||--------------------------------------------------|
D#||--------------------------------------------------|
A#||--------------------------------------------------|
F ||------------------2--------------------------2----|
C ||--0-0-0-0-0-0-0-0-0--0-0-0-0-0-0-0-0-0-0-0-0-0----|



C ||----------------------------------------------------|
G ||----------------------------------------------------|
D#||----------------------------------------------------|
A#||----------------------------------------------------|
F ||------------------2---------------------------------|
C ||--0-0-0-0-0-0-0-0-0--0-0-0-0-0-0-0-0-0-0-0-0-3-2-0--|


Solo
              First guitar
C ||--------------------|------------------------------|--------------------|
G ||--------------------|------------------------------|--------------------|
D#||--------------------|------------------------------|--------------------|
A#||--------------------|------------------------------|--------------------|
F ||--7--------------7--|--7/-9--9/-10--10/-12--12/-7--|--6--------------6--|
C ||--------------------|------------------------------|--------------------|



C ||--------------------------|----------------|------------------------------|
G ||--------------------------|----------------|------------------------------|
D#||--------------------------|----------------|------------------------------|
A#||--------------------------|----------------|------------------------------|
F ||--6/-5--5/-3--3/-2--2/-0--|--7----------7--|--7/-9--9/-10--10/-12--12/-7--|
C ||--------------------------|----------------|------------------------------|



C ||--------------------|--------------------------|
G ||--------------------|--------------------------|
D#||--------------------|--------------------------|
A#||--------------------|--------------------------|
F ||--6--------------6--|--6/-5--5/-3--3/-2--2/-0--|
C ||--------------------|--------------------------|

          Second guitar

C ||--------------------|
G ||--------------------|
D#||--9--------------9--|
A#||--------------------|
F ||--------------------|
C ||--------------------|


C ||--------------------------------|--------------------|
G ||--------------------------------|--------------------|
D#||--9/-11--11/-12--12/-14--14/-9--|--8--------------8--|
A#||--------------------------------|--------------------|
F ||--------------------------------|--------------------|
C ||--------------------------------|--------------------|



C ||---------------------------|
G ||---------------------------|
D#||--8/-7--7/-5--5/-4--4/-2---|
A#||---------------------------|
F ||---------------------------|
C ||---------------------------|


Riff 3 1x

Verse

Riff 3

Chours





Comments


Popular Caliban tabs & chords
Nothing Is Forever Bass Tabs
Certainty Corpses Bleed Cold 1 Tabs
It's Our Burden To Bleed 1 Tabs
It's Our Burden To Bleed 2 Tabs
Memorial Tabs
No More 2nd Chances Tabs
Skit1 Tabs
Song About Killing Tabs
The Revenge Tabs
This Oath Tabs


Song lyrics



↑ Back to top | Tablatures and chords are parodies/interpretations of the original songs. You may use it for private study, scholarship, research or language learning purposes only
© 2014 AZChords.com Contact us | Privacy policy | DMCA | Add/correct tabs | Request tabs | Top 50 tabs