» » »

Caliban, Certainty Corpses Bleed Cold Bass tabs (ver.1)

Artists:  A B C D E F G H I J K L M N O P Q R S T U V W X Y Z # 

Certainty Corpses Bleed Cold Bass tabs (ver.1)

Caliban Tabs
 Rating:
4/5 (4 votes)
Certainty Corpses Bleed Cold lessons Tabs too difficult? Try these video lessons and learn fast
                
CERTAINTY... CORPSES BLEED COLD (Bassline)
As recorded by Caliban
(From the 2004 Album OPPOSITE FROM WITHIN)

	

Words and Music by Caliban
Arranged by Caliban

Gtr I (C G C F) - 'Bass'

 Intro
  Dancefight Q=181
 4/4
  Gtr I
  Wx12
|---------||
|---------||
|---------||
|---------||


 Chorus
  H.      Q    E E H    E E   Q  Q  Q  Q
|------------|--------------|-------------|
|------------|--------------|-------------|
|------------|--------------|-------------|
|-0-------0--|-0-0------0-0-|-0--2--3--8--|


  +H.      Q    E E H    E E   Q  Q  Q  Q
|-------------|--------------|-------------|
|-------------|--------------|-------------|
|-------------|--------------|-------------|
|-(8)------8--|-8-8------8-8-|-8--5--7--0--|


    +H.      Q    E E H    E E   Q  Q  Q  Q
||--------------|--------------|-------------|
||o-------------|--------------|-------------|
||o-------------|--------------|-------------|
||--(0)------0--|-0-0------0-0-|-0--2--3--8--|


                               1.,2.           3.
  +H.      Q    E E H    E E   Q  Q  Q  Q   3x Q  Q  H
|-------------|--------------|--------------||------------||
|-------------|--------------|-------------o||------------||
|-------------|--------------|-------------o||------------||
|-(8)------8--|-8-8------8-8-|-8--5--7--0---||-8--5--7----||


 Pre-Verse
  W          +W           +W           S S S S S S S S S S S S S S S S
|----------|------------|------------|-------------------------3-4-5-6--|
|----------|------------|------------|-----------------2-3-4-5----------|
|----------|------------|------------|---------1-2-3-4------------------|
|-0--------|-(0)--------|-(0)--------|-2-3-4-5--------------------------|


  E H.      E   W          W          S S S S S S S S S S S S S S S S
|-------------|----------|----------|----------------------------------||
|-------------|----------|----------|----------------------------------||
|-------------|----------|----------|----------------------------------||
|-0-----------|----------|-0--------|-2-2-2-2-3-3-3-3-6-6-6-6-2-2-2-2--||


   Verse
    E E E E E E E E   E E E E E E E E
||------------------|-----------------|
||o-----------------|-----------------|
||o-5h6---5h6---5h6-|-1h3---1h3---1h3-|
||------0-----0-----|-----0-----0-----|


  E E E E E E E E   S S S S S S S S S S S S S S S S
|-----------------|-------------------------3-4-5-6-|
|-----------------|-----------------2-3-4-5---------|
|-5h6---5h6---5h6-|---------1-2-3-4-----------------|
|-----0-----0-----|-2-3-4-5-------------------------|


  E E E E E E E E   E E E E E E E E   E E E E E E E E
|-----------------|-----------------|-----------------|
|-----------------|-----------------|-----------------|
|-5h6---5h6---5h6-|-1h3---1h3---1h3-|-5h6---5h6---5h6-|
|-----0-----0-----|-----0-----0-----|-----0-----0-----|


  S S S S S S S S S S S S S S S S
|-----------------------------------||
|----------------------------------o||
|----------------------------------o||
|-2-2-2-2-3-3-3-3-6-6-6-6-2-2-2-2---||


   Breakdown
    S S S S S S S S E E S S S S   S S S S S S S S E Q.
||------------------------------|-------------------------|
||o-----------------------------|-------------------------|
||o-----------------------------|-------------------------|
||--0-0-0-0-0-0-0-0-0---0-0-0-0-|-0-0-0-0-0-0-0-0-0-------|


                      1.,2.,3.                           4.
                                                        5/4
  S S S S S S S S E E S S S S   S S S S S S S S H     4x E E Q.   Q.   Q
|-----------------------------|-----------------------||--------------------||
|-----------------------------|----------------------o||--------------------||
|-----------------------------|----------------------o||--------------------||
|-0-0-0-0-0-0-0-0-0---0-0-0-0-|-0-0-0-0-0-0-0-0-------||-0-0-8----7----3----||


 Chorus
 4/4
  H.      Q    E E H    E E   Q  Q  Q  Q
|------------|--------------|--------------|
|------------|--------------|--------------|
|------------|--------------|--------------|
|-0-------0--|-0-0------0-0-|-0--2--3--8---|


  +H.      Q    E E H    E E   Q  Q  Q  Q
|-------------|--------------|-------------|
|-------------|--------------|-------------|
|-------------|--------------|-------------|
|-(8)------8--|-8-8------8-8-|-8--5--7--0--|


    +H.      Q    E E H    E E   Q  Q  Q  Q
||--------------|--------------|-------------|
||o-------------|--------------|-------------|
||o-------------|--------------|-------------|
||--(0)------0--|-0-0------0-0-|-0--2--3--8--|


                               1.,2.           3.
  +H.      Q    E E H    E E   Q  Q  Q  Q   3x Q  Q  H
|-------------|--------------|--------------||------------||
|-------------|--------------|-------------o||------------||
|-------------|--------------|-------------o||------------||
|-(8)------8--|-8-8------8-8-|-8--5--7--0---||-8--5--7----||


   Interlude
    S S S S S S S S E E S S S S   S S S S S S S S E Q.
||------------------------------|-------------------------|
||o-----------------------------|-------------------------|
||o-----------------------------|-------------------------|
||--0-0-0-0-0-0-0-0-0---0-0-0-0-|-0-0-0-0-0-0-0-0-0-------|


  S S S S S S S S E E S S S S   S S S S E E E E Q   4x
|-----------------------------|---------------------||
|-----------------------------|--------------------o||
|-----------------------------|--------------------o||
|-0-0-0-0-0-0-0-0-0---0-0-0-0-|-0-0-0-0-0---3-2-0---||


  S S S S S S S S E E S S S S   S S S S S S S S H
|-----------------------------|----------------------|
|-----------------------------|----------------------|
|-----------------------------|----------------------|
|-0-0-0-0-0-0-0-0-0---0-0-0-0-|-0-0-0-0-0-0-0-0------|


  S S S S S S S S E E S S S S   S S S S S S S S E Q.
|-----------------------------|------------------------||
|-----------------------------|------------------------||
|-----------------------------|------------------------||
|-0-0-0-0-0-0-0-0-0---0-0-0-0-|-0-0-0-0-0-0-0-0-0------||


   Verse
    E E E E E E E E   E E E E E E E E
||------------------|-----------------|
||o-----------------|-----------------|
||o-5h6---5h6---5h6-|-1h3---1h3---1h3-|
||------0-----0-----|-----0-----0-----|


  E E E E E E E E   S S S S S S S S S S S S S S S S
|-----------------|-------------------------3-4-5-6-|
|-----------------|-----------------2-3-4-5---------|
|-5h6---5h6---5h6-|---------1-2-3-4-----------------|
|-----0-----0-----|-2-3-4-5-------------------------|


  E E E E E E E E   E E E E E E E E   E E E E E E E E
|-----------------|-----------------|-----------------|
|-----------------|-----------------|-----------------|
|-5h6---5h6---5h6-|-1h3---1h3---1h3-|-5h6---5h6---5h6-|
|-----0-----0-----|-----0-----0-----|-----0-----0-----|


  S S S S S S S S S S S S S S S S
|-----------------------------------||
|----------------------------------o||
|----------------------------------o||
|-2-2-2-2-3-3-3-3-6-6-6-6-2-2-2-2---||


   Breakdown
    S S S S S S S S E E S S S S   S S S S S S S S E Q.
||------------------------------|-------------------------|
||o-----------------------------|-------------------------|
||o-----------------------------|-------------------------|
||--0-0-0-0-0-0-0-0-0---0-0-0-0-|-0-0-0-0-0-0-0-0-0-------|


                      1.,2.,3.                           4.
                                                        5/4
  S S S S S S S S E E S S S S   S S S S S S S S H     4x E E Q.   Q.   Q
|-----------------------------|-----------------------||--------------------||
|-----------------------------|----------------------o||--------------------||
|-----------------------------|----------------------o||--------------------||
|-0-0-0-0-0-0-0-0-0---0-0-0-0-|-0-0-0-0-0-0-0-0-------||-0-0-8----7----3----||


 Chorus
 4/4
  H.      Q    E E H    E E   Q  Q  Q  Q
|------------|--------------|--------------|
|------------|--------------|--------------|
|------------|--------------|--------------|
|-0-------0--|-0-0------0-0-|-0--2--3--8---|


  +H.      Q    E E H    E E   Q  Q  Q  Q
|-------------|--------------|-------------|
|-------------|--------------|-------------|
|-------------|--------------|-------------|
|-(8)------8--|-8-8------8-8-|-8--5--7--0--|


    +H.      Q    E E H    E E   Q  Q  Q  Q
||--------------|--------------|-------------|
||o-------------|--------------|-------------|
||o-------------|--------------|-------------|
||--(0)------0--|-0-0------0-0-|-0--2--3--8--|


                               1.,2.           3.
  +H.      Q    E E H    E E   Q  Q  Q  Q   3x Q  Q  H
|-------------|--------------|--------------||------------||
|-------------|--------------|-------------o||------------||
|-------------|--------------|-------------o||------------||
|-(8)------8--|-8-8------8-8-|-8--5--7--0---||-8--5--7----||


 Outro
  W          +W           +W
|----------|------------|--------|
|----------|------------|--------|
|----------|------------|--------|
|-0--------|-(0)--------|-(0)----|


  +W           +W           +W
|------------|------------|--------|
|------------|------------|--------|
|------------|------------|--------|
|-(0)--------|-(0)--------|-(0)----|


  H.=H                      Q=14HQ=70
   >
  +W           +W           +W
|------------|------------|----------|
|------------|------------|----------|
|------------|------------|----------|
|-(0)--------|-(0)--------|-(0)------|


  Q=140
  W          W          W
|----------|----------|------|
|----------|----------|------|
|----------|----------|------|
|----------|----------|------|


  H.=H                  Q=HQ=60
  W          W          W
|----------|----------|--------|
|----------|----------|--------|
|----------|----------|--------|
|----------|----------|--------|


  Q=80
  W          W          W
|----------|----------|------*|
|----------|----------|------*|
|----------|----------|------*|
|----------|----------|------*|



Duration Legend
---------------
W - whole; H - half; Q - quarter; E - 8th; S - 16th; T - 32nd; X - 64th; a - acciaccatura
+ - note tied to previous; . - note dotted; .. - note double dotted
Uncapitalized letters represent notes that are staccato (1/2 duration)
Irregular groupings are notated above the duration line
Duration letters will always appear directly above the note/fret number it represents the
duration for.  Duration letters with no fret number below them represent rests.  Multi-
bar rests are notated in the form Wxn, where n is the number of bars to rest for.  Low
melody durations appear below the staff

Tablature Legend
----------------
 h   - hammer-on
 p   - pull-off
 b   - bend
 pb  - pre-bend
 r   - bend release (if no number after the r, then release immediately)
 /\  - slide into or out of (from/to "nowhere")
 s   - legato slide
 S   - shift slide
 - natural harmonic
[n]  - artificial harmonic
n(n) - tapped harmonic
 ~   - vibrato
 tr  - trill
 T   - tap
 TP  - trem. picking
 PM  - palm muting
\n/  - tremolo bar dip; n = amount to dip
 \n  - tremolo bar down
 n/  - tremolo bar up
/n\  - tremolo bar inverted dip
 =   - hold bend; also acts as connecting device for hammers/pulls
 <> - volume swell (louder/softer)
 x   - on rhythm slash represents muted slash
 o   - on rhythm slash represents single note slash

Misc Legend
-----------
 |  - bar
||  - double bar
||o - repeat start
o|| - repeat end
*|  - double bar (ending)
 :  - bar (freetime)
 $  - Segno
 &  - Coda
Tempo markers -  = BPM(8/16=s8/s16), where s8 = swing 8ths, s16 = swing 16ths
            
Submit corrections

comments powered by Disqus
↑ Back to top | Caliban Bass for Certainty Corpses Bleed Cold. Lyrics for acoustic guitar and electric guitar. Tablatures and chords are parodies/interpretations of the original songs. You may use it for private study, scholarship, research or language learning purposes only