>
 >
Certainty Corpses Bleed Cold 1

Certainty Corpses Bleed Cold 1 Guitar Tabs

Caliban - Certainty Corpses Bleed Cold 1 chords, tabs, tablatures, lyrics

Guitar lessons | Add/correct | Request | Top 50 tabs Artists:  A B C D E F G H I J K L M N O P Q R S T U V W X Y Z 0-9

Certainty Corpses Bleed Cold 1 Guitar Tabs – Caliban

CD, Sheet music, Poster

Do you like Certainty Corpses Bleed Cold 1? Share with your friends now
Bass TabsTabsTabs v2
#------------------------------------------------------------------------------##

                         CERTAINTY... CORPSES BLEED COLD
                             As recorded by Caliban
                   (From the 2004 Album OPPOSITE FROM WITHIN)

Words and Music by Caliban
Arranged by Caliban

Gtr I (C G C F A D) - 'Untitled'
Gtr II (C G C F A D) - 'Untitled'
Gtr III (C G C F A D) - 'Untitled'
Gtr IV (C G C F A D) - 'Untitled'
Gtr V (C G C F A D) - 'Untitled'

 Intro
  Dancefight Q=181
  (Dm)         (Dm7)          (Dm)
 4/4
  Gtr III
  H    Q  Q    Q  Q  Q   Q     +Q   Q  Q  Q
|------------|-8--------10--|-(10)------------|
|------6-----|----6---------|-------6-----5---|
|-7-------7--|-------7------|----------7------|
|------------|--------------|-----------------|
|------------|--------------|-----------------|
|------------|--------------|-----------------|


  (Dm)         (Dm7)          (Dm)
  H    Q  Q    Q  Q  Q   Q     +Q   Q  Q  Q
|------------|-8--------10--|-(10)-----------|
|------6-----|----6---------|-------6--------|
|-7-------7--|-------7------|----------7--7--|
|------------|--------------|----------------|
|------------|--------------|----------------|
|------------|--------------|----------------|


  (Dm)         (Dm7)          (Dm)
  H    Q  Q    Q  Q  Q   Q     +Q   Q  Q  Q
|------------|-8--------10--|-(10)-----------|
|------6-----|----6---------|-------6-----5--|
|-7-------7--|-------7------|----------7-----|
|------------|--------------|----------------|
|------------|--------------|----------------|
|------------|--------------|----------------|


  (Dm)         (Dm7)          (Dm)  Asus4
  H    Q  Q    Q  Q  Q   Q     +Q   Q   Q  Q
|------------|-8--------10--|-(10)------------||
|------6-----|----6---------|-------6---------||
|-7-------7--|-------7------|-----------7--7--||
|------------|--------------|-----------------||
|------------|--------------|-----------------||
|------------|--------------|-----------------||
|
| Gtrs I, II
|                                   <
| W            W                Q   H.
|------------|--------------|-----------------||
|------------|--------------|-------3---------||
|------------|--------------|-------2---------||
|------------|--------------|-----------------||
|------------|--------------|-----------------||
|------------|--------------|-----------------||


 Chorus
  D5                                   E5 F5 Bb5
  H     Q  Q    Q   Q  Q   Q      +Q   Q  Q  Q
|-------------|-8---------10---|-(10)-----------|
|-------6-----|-----6----------|-------6-----5--|
|-7--------7--|--------7-------|----------7-----|
|-------------|----------------|----------------|
|-------------|----------------|----------------|
|-------------|----------------|----------------|
|
|          PM-----|        PM|
| H.       Q    E E H      E E     Q   Q  Q  Q
|-------------|----------------|----------------|
|-------------|----------------|----------------|
|-------------|----------------|----------------|
|-------------|----------------|----------------|
|-0--------0--|-0-0--------0-0-|---0---2--3--8--|
|-0--------0--|-0-0--------0-0-|---0---2--3--8--|


  Bb5                                   G5 A5 D5
   H     Q  Q    Q   Q  Q   Q      +Q   Q  Q  Q
|--------------|-8---------10---|-(10)-----------|
|--------6-----|-----6----------|-------6--------|
|--7--------7--|--------7-------|----------7--7--|
|--------------|----------------|----------------|
|--------------|----------------|----------------|
|--------------|----------------|----------------|
|
|           PM-----|        PM|
| +H.       Q    E E H      E E     Q   Q  Q  Q
|--------------|----------------|----------------|
|--------------|----------------|----------------|
|--------------|----------------|----------------|
|--------------|----------------|----------------|
|-(8)-------8--|-8-8--------8-8-|---8---5--7--0--|
|-(8)-------8--|-8-8--------8-8-|---8---5--7--0--|


    D5                                    E5 F5 Bb5
     H     Q  Q    Q   Q  Q   Q      +Q   Q  Q  Q
||---------------|-8---------10---|-(10)-----------|
||o--------6-----|-----6----------|-------6-----5--|
||---7--------7--|--------7-------|----------7-----|
||---------------|----------------|----------------|
||o--------------|----------------|----------------|
||---------------|----------------|----------------|
|
|             PM-----|        PM|
|   +H.       Q    E E H      E E     Q   Q  Q  Q
||---------------|----------------|----------------|
||o--------------|----------------|----------------|
||---------------|----------------|----------------|
||---------------|----------------|----------------|
||o-(0)-------0--|-0-0--------0-0-|---0---2--3--8--|
||--(0)-------0--|-0-0--------0-0-|---0---2--3--8--|


                                  1.,2.              3.
  Bb5                                   G5 A5 D5     Bb5 G5 A5
   H     Q  Q    Q   Q  Q   Q      +Q   Q  Q  Q   3x  Q  Q  Q  Q
|--------------|-8---------10---|-(10)------------||-10-----------||
|--------6-----|-----6----------|-------6--------o||-----6--------||
|--7--------7--|--------7-------|----------7--7---||--------7--7--||
|--------------|----------------|-----------------||--------------||
|--------------|----------------|----------------o||--------------||
|--------------|----------------|-----------------||--------------||
|
|           PM-----|        PM|
| +H.       Q    E E H      E E     Q   Q  Q  Q   3x  Q  Q  H
|--------------|----------------|-----------------||--------------||
|--------------|----------------|----------------o||--------------||
|--------------|----------------|-----------------||--------------||
|--------------|----------------|-----------------||--------------||
|-(8)-------8--|-8-8--------8-8-|---8---5--7--0--o||--8--5--7-----||
|-(8)-------8--|-8-8--------8-8-|---8---5--7--0---||--8--5--7-----||


 Pre-Verse
  D5
  Gtr I
      PM    PM            PM    PM
  E E E E E E E E    E  E E E E E E E
|-----------------|-------------------|
|-----------------|-------------------|
|-----------------|-------------------|
|-----------------|-------------------|
|-5h6---5h6---5h6-|--1h=3---1h3---1h3-|
|-----0-----0-----|-------0-----0-----|
|
| Gtr II
| W                 +W
|-----------------|-------------------|
|-----------------|-------------------|
|-----------------|-------------------|
|-----------------|-------------------|
|-0---------------|-(0)---------------|
|-0---------------|-(0)---------------|


                      N.C.
        PM    PM
   E  E E E E E E E   S S S S S S S S S S S S S S S  S
|-------------------|-----------------------------------|
|-------------------|-----------------------------------|
|-------------------|-------------------------7-8-9-10--|
|-------------------|-----------------6-7-8-9-----------|
|--5h=6---5h6---5h6-|---------5-6-7-8-------------------|
|-------0-----0-----|-6-7-8-9---------------------------|
|
| +W                  S S S S S S S S S S S S S S S  S
|-------------------|-----------------------------------|
|-------------------|-----------------------------------|
|-------------------|-------------------------3-4-5--6--|
|-------------------|-----------------2-3-4-5-----------|
|-(0)---------------|---------1-2-3-4-------------------|
|-(0)---------------|-2-3-4-5---------------------------|


  D5
       PM    PM          PM    PM
  E E  E E E E E E   E E E E E E E E
|------------------|-----------------|
|------------------|-----------------|
|------------------|-----------------|
|------------------|-----------------|
|-5h6----5h6---5h6-|-1h3---1h3---1h3-|
|------0-----0-----|-----0-----0-----|
|
| E H.           E   W
|------------------|-----------------|
|------------------|-----------------|
|------------------|-----------------|
|------------------|-----------------|
|-0----------------|-----------------|
|-0----------------|-----------------|


                    N.C.
      PM    PM
  E E E E E E E E   S S S S S S S S S S S S S S S S
|-----------------|----------------------------------||
|-----------------|----------------------------------||
|-----------------|----------------------------------||
|-----------------|----------------------------------||
|-5h6---5h6---5h6-|----------------------------------||
|-----0-----0-----|-2-2-2-2-3-3-3-3-6-6-6-6-2-2-2-2--||
|
| W                 S S S S S S S S S S S S S S S S
|-----------------|----------------------------------||
|-----------------|----------------------------------||
|-----------------|----------------------------------||
|-----------------|----------------------------------||
|-0---------------|----------------------------------||
|-0---------------|-2-2-2-2-3-3-3-3-6-6-6-6-2-2-2-2--||


   Verse
    N.C.
    Gtr I
        PM    PM          PM    PM
    E E E E E E E E   E E E E E E E E
||------------------|-----------------|
||o-----------------|-----------------|
||------------------|-----------------|
||------------------|-----------------|
||o-5h6---5h6---5h6-|-1h3---1h3---1h3-|
||------0-----0-----|-----0-----0-----|
|
|   Gtr II
|       PM    PM          PM    PM
|   E E E E E E E E   E E E E E E E E
||------------------|-----------------|
||o-----------------|-----------------|
||------------------|-----------------|
||------------------|-----------------|
||o-5h6---5h6---5h6-|-1h3---1h3---1h3-|
||------0-----0-----|-----0-----0-----|


      PM    PM
  E E E E E E E E   S S S S S S S S S S S S S S S  S
|-----------------|----------------------------------|
|-----------------|----------------------------------|
|-----------------|-------------------------7-8-9-10-|
|-----------------|-----------------6-7-8-9----------|
|-5h6---5h6---5h6-|---------5-6-7-8------------------|
|-----0-----0-----|-6-7-8-9--------------------------|
|
|     PM    PM
| E E E E E E E E   S S S S S S S S S S S S S S S  S
|-----------------|----------------------------------|
|-----------------|----------------------------------|
|-----------------|-------------------------3-4-5--6-|
|-----------------|-----------------2-3-4-5----------|
|-5h6---5h6---5h6-|---------1-2-3-4------------------|
|-----0-----0-----|-2-3-4-5--------------------------|


  N.C.
      PM    PM          PM    PM          PM    PM
  E E E E E E E E   E E E E E E E E   E E E E E E E E
|-----------------|-----------------|-----------------|
|-----------------|-----------------|-----------------|
|-----------------|-----------------|-----------------|
|-----------------|-----------------|-----------------|
|-5h6---5h6---5h6-|-1h3---1h3---1h3-|-5h6---5h6---5h6-|
|-----0-----0-----|-----0-----0-----|-----0-----0-----|
|
|     PM    PM          PM    PM          PM    PM
| E E E E E E E E   E E E E E E E E   E E E E E E E E
|-----------------|-----------------|-----------------|
|-----------------|-----------------|-----------------|
|-----------------|-----------------|-----------------|
|-----------------|-----------------|-----------------|
|-5h6---5h6---5h6-|-1h3---1h3---1h3-|-5h6---5h6---5h6-|
|-----0-----0-----|-----0-----0-----|-----0-----0-----|


  S S S S S S S S S S S S S S S S
|-----------------------------------||
|----------------------------------o||
|-----------------------------------||
|-----------------------------------||
|----------------------------------o||
|-2-2-2-2-3-3-3-3-6-6-6-6-2-2-2-2---||
|
| S S S S S S S S S S S S S S S S
|-----------------------------------||
|----------------------------------o||
|-----------------------------------||
|-----------------------------------||
|----------------------------------o||
|-2-2-2-2-3-3-3-3-6-6-6-6-2-2-2-2---||


   Breakdown
    D5
    Gtr I
    PM--------------|   PM------------------------|
    S S S S S S S S E E S S S S   S S S S S S S S E Q.
||------------------------------|-------------------------|
||o-----------------------------|-------------------------|
||------------------------------|-------------------------|
||------------------------------|-------------------------|
||o-----------------------------|-------------------------|
||--0-0-0-0-0-0-0-0-0---0-0-0-0-|-0-0-0-0-0-0-0-0-0-------|
|
|   Gtr II
|   PM--------------|   PM------------------------|
|   S S S S S S S S E E S S S S   S S S S S S S S E Q.
||------------------------------|-------------------------|
||o-----------------------------|-------------------------|
||------------------------------|-------------------------|
||------------------------------|-------------------------|
||o-0-0-0-0-0-0-0-0-0---0-0-0-0-|-0-0-0-0-0-0-0-0-0-------|
||--0-0-0-0-0-0-0-0-0---0-0-0-0-|-0-0-0-0-0-0-0-0-0-------|


                      1.,2.,3.
  D5
  PM--------------|   PM-------
  S S S S S S S S E E S S S S
|-----------------------------|
|-----------------------------|
|-----------------------------|
|-----------------------------|
|-----------------------------|
|-0-0-0-0-0-0-0-0-0---0-0-0-0-|
|
| PM--------------|   PM-------
| S S S S S S S S E E S S S S
|-----------------------------|
|-----------------------------|
|-----------------------------|
|-----------------------------|
|-0-0-0-0-0-0-0-0-0---0-0-0-0-|
|-0-0-0-0-0-0-0-0-0---0-0-0-0-|


                              4.
                  N.C.        D5  Bb5  A5   F5
                             5/4
 ---------------|             PM|
  S S S S S S S S  Q   Q   4x E E Q.   Q.   Q
|--------------------------||--------------------||
|-----------------11--10--o||--------------------||
|-----------------14--13---||--------------------||
|--------------------------||--------------------||
|-------------------------o||-0-0-8----7----3----||
|-0-0-0-0-0-0-0-0----------||-0-0-8----7----3----||
|
|---------------|             PM|
| S S S S S S S S  H       4x E E Q.   Q.   Q
|--------------------------||--------------------||
|-------------------------o||--------------------||
|--------------------------||--------------------||
|--------------------------||--------------------||
|-0-0-0-0-0-0-0-0---------o||-0-0-8----7----3----||
|-0-0-0-0-0-0-0-0----------||-0-0-8----7----3----||


 Chorus
  D5                                   E5 F5 Bb5
 4/4
  Gtr III
  H     Q  Q    Q   Q  Q   Q      +Q   Q  Q  Q
|-------------|-8---------10---|-(10)------------|
|-------6-----|-----6----------|-------6-----5---|
|-7--------7--|--------7-------|----------7------|
|-------------|----------------|-----------------|
|-------------|----------------|-----------------|
|-------------|----------------|-----------------|
|
| Gtrs I, II
|          PM-----|        PM|
| H.       Q    E E H      E E     Q   Q  Q  Q
|-------------|----------------|-----------------|
|-------------|----------------|-----------------|
|-------------|----------------|-----------------|
|-------------|----------------|-----------------|
|-0--------0--|-0-0--------0-0-|---0---2--3--8---|
|-0--------0--|-0-0--------0-0-|---0---2--3--8---|


  Bb5                                   G5 A5 D5
   H     Q  Q    Q   Q  Q   Q      +Q   Q  Q  Q
|--------------|-8---------10---|-(10)-----------|
|--------6-----|-----6----------|-------6--------|
|--7--------7--|--------7-------|----------7--7--|
|--------------|----------------|----------------|
|--------------|----------------|----------------|
|--------------|----------------|----------------|
|
|           PM-----|        PM|
| +H.       Q    E E H      E E     Q   Q  Q  Q
|--------------|----------------|----------------|
|--------------|----------------|----------------|
|--------------|----------------|----------------|
|--------------|----------------|----------------|
|-(8)-------8--|-8-8--------8-8-|---8---5--7--0--|
|-(8)-------8--|-8-8--------8-8-|---8---5--7--0--|


    D5                                    E5 F5 Bb5
     H     Q  Q    Q   Q  Q   Q      +Q   Q  Q  Q
||---------------|-8---------10---|-(10)-----------|
||o--------6-----|-----6----------|-------6-----5--|
||---7--------7--|--------7-------|----------7-----|
||---------------|----------------|----------------|
||o--------------|----------------|----------------|
||---------------|----------------|----------------|
|
|             PM-----|        PM|
|   +H.       Q    E E H      E E     Q   Q  Q  Q
||---------------|----------------|----------------|
||o--------------|----------------|----------------|
||---------------|----------------|----------------|
||---------------|----------------|----------------|
||o-(0)-------0--|-0-0--------0-0-|---0---2--3--8--|
||--(0)-------0--|-0-0--------0-0-|---0---2--3--8--|


                                  1.,2.              3.
  Bb5                                   G5 A5 D5     Bb5 G5 A5
   H     Q  Q    Q   Q  Q   Q      +Q   Q  Q  Q   3x  Q  Q  Q  Q
|--------------|-8---------10---|-(10)------------||-10-----------||
|--------6-----|-----6----------|-------6--------o||-----6--------||
|--7--------7--|--------7-------|----------7--7---||--------7--7--||
|--------------|----------------|-----------------||--------------||
|--------------|----------------|----------------o||--------------||
|--------------|----------------|-----------------||--------------||
|
|           PM-----|        PM|
| +H.       Q    E E H      E E     Q   Q  Q  Q   3x  Q  Q  H
|--------------|----------------|-----------------||--------------||
|--------------|----------------|----------------o||--------------||
|--------------|----------------|-----------------||--------------||
|--------------|----------------|-----------------||--------------||
|-(8)-------8--|-8-8--------8-8-|---8---5--7--0--o||--8--5--7-----||
|-(8)-------8--|-8-8--------8-8-|---8---5--7--0---||--8--5--7-----||


 Interlude
  D5
  Gtrs IV, V
  W                             +H.                    Q
|-----------------------------|---------------------------|
|-----------------------------|---------------------------|
|-7---------------------------|-(7)--------------------7--|
|-x---------------------------|-(x)--------------------x--|
|-5---------------------------|-(5)--------------------5--|
|-----------------------------|---------------------------|
|
| Gtrs I, II
| PM--------------|   PM--------------------------|
| S S S S S S S S E E S S S S    S  S S S S S S S E Q.
|-----------------------------|---------------------------|
|-----------------------------|---------------------------|
|-----------------------------|---------------------------|
|-----------------------------|---------------------------|
|-0-0-0-0-0-0-0-0-0---0-0-0-0-|--0--0-0-0-0-0-0-0-0-------|
|-0-0-0-0-0-0-0-0-0---0-0-0-0-|--0--0-0-0-0-0-0-0-0-------|


  D5                                               F5 E5   D5
  E   +E    Q       E +E  Q         E   +E     Q    E  +E  Q
|---------------------------------|---------------------------|
|---------------------------------|---------------------------|
|-5---(5)s==7-------7-(7)s9-------|-9---(9)s==10---10-(10)s9--|
|-x---(x)---x-------x-(x)-x-------|-x---(x)----x----x--(x)-x--|
|-3---(3)s==5-------5-(5)s7-------|-7---(7)s===8----8--(8)s7--|
|---------------------------------|---------------------------|
|
| PM----------------|     PM------------------|     PM-----|
| S S  S  S S S S S E  E  S S S S   S S  S  S  E E  E   E  Q
|---------------------------------|---------------------------|
|---------------------------------|---------------------------|
|---------------------------------|---------------------------|
|---------------------------------|---------------------------|
|-0-0--0--0-0-0-0-0-0-----0-0-0-0-|-0-0--0--0--0----3---2--0--|
|-0-0--0--0-0-0-0-0-0-----0-0-0-0-|-0-0--0--0--0----3---2--0--|


  D5
   W                              +H.                     Q
|------------------------------|-----------------------------|
|------------------------------|-----------------------------|
|------------------------------|-----------------------------|
|-11---------------------------|-(11)--------------------11--|
|--x---------------------------|--(x)---------------------x--|
|-11---------------------------|-(11)--------------------11--|
|
|  PM------------|     PM---------------------------|
|  S S S S S S S S E E S S S S     S  S S S S S S S E Q.
|------------------------------|-----------------------------|
|------------------------------|-----------------------------|
|------------------------------|-----------------------------|
|------------------------------|-----------------------------|
|--0-0-0-0-0-0-0-0-0---0-0-0-0-|---0--0-0-0-0-0-0-0-0--------|
|--0-0-0-0-0-0-0-0-0---0-0-0-0-|---0--0-0-0-0-0-0-0-0--------|


  D5                                                   F5E5  D5
   E    +E     Q        E  +E  Q         E   +E    Q   E +E  Q
|--------------------------------------|------------------------|
|--------------------------------------|------------------------|
|--------------------------------------|------------------------|
|-11---(11)s==10-------10-(10)s8-------|-8---(8)s==7---7-(7)s5--|
|--x----(x)----x--------x--(x)-x-------|-x---(x)---x---x-(x)-x--|
|-11---(11)s==10-------10-(10)s8-------|-8---(8)s==7---7-(7)s5--|
|
|  PM------------------|       PM------------------|   PM----|
|  S S   S  S  S S S S  E   E  S S S S   S S  S  S E E E  E  Q
|--------------------------------------|------------------------|
|--------------------------------------|------------------------|
|--------------------------------------|------------------------|
|--------------------------------------|------------------------|
|--0-0---0--0--0-0-0-0--0------0-0-0-0-|-0-0--0--0-0---3--2--0--|
|--0-0---0--0--0-0-0-0--0------0-0-0-0-|-0-0--0--0-0---3--2--0--|


  D5
  Gtr IV
   W                              +H.                     Q
|------------------------------|-----------------------------|
|------------------------------|-----------------------------|
|-11---------------------------|-(11)--------------------11--|
|--x---------------------------|--(x)---------------------x--|
|--9---------------------------|--(9)---------------------9--|
|------------------------------|-----------------------------|
|
| Gtr V
|  W                              +H.                     Q
|------------------------------|-----------------------------|
|------------------------------|-----------------------------|
|--7---------------------------|--(7)---------------------7--|
|--x---------------------------|--(x)---------------------x--|
|--5---------------------------|--(5)---------------------5--|
|------------------------------|-----------------------------|
|
| Gtrs I, II
|  PM--------------|   PM---------------------------|
|  S S S S S S S S E E S S S S     S  S S S S S S S E Q.
|------------------------------|-----------------------------|
|------------------------------|-----------------------------|
|------------------------------|-----------------------------|
|------------------------------|-----------------------------|
|--0-0-0-0-0-0-0-0-0---0-0-0-0-|---0--0-0-0-0-0-0-0-0--------|
|--0-0-0-0-0-0-0-0-0---0-0-0-0-|---0--0-0-0-0-0-0-0-0--------|


  D5                                                     F5 E5   D5
  E   +E     Q        E  +E   Q          E    +E     Q    E  +E   Q
|-------------------------------------|------------------------------|
|-------------------------------------|------------------------------|
|-9---(9)s==11-------11-(11)s12-------|-12---(12)s==14---14-(14)s12--|
|-x---(x)----x--------x--(x)--x-------|--x----(x)----x----x--(x)--x--|
|-7---(7)s===9--------9--(9)s10-------|-10---(10)s==12---12-(12)s10--|
|-------------------------------------|------------------------------|
|
| E   +E     Q        E  +E   Q          E    +E     Q    E  +E   Q
|-------------------------------------|------------------------------|
|-------------------------------------|------------------------------|
|-5---(5)s===7--------7--(7)s=9-------|--9----(9)s==10---10-(10)s=9--|
|-x---(x)----x--------x--(x)--x-------|--x----(x)----x----x--(x)--x--|
|-3---(3)s===5--------5--(5)s=7-------|--7----(7)s===8----8--(8)s=7--|
|-------------------------------------|------------------------------|
|
| PM-----------------|        PM--------------------|     PM-----|
| S S  S  S  S S S S  E   E   S S S S    S S   S  S  E E  E   E   Q
|-------------------------------------|------------------------------|
|-------------------------------------|------------------------------|
|-------------------------------------|------------------------------|
|-------------------------------------|------------------------------|
|-0-0--0--0--0-0-0-0--0-------0-0-0-0-|--0-0---0--0--0----3---2---0--|
|-0-0--0--0--0-0-0-0--0-------0-0-0-0-|--0-0---0--0--0----3---2---0--|


  D5
   W                              +H.                     Q
|------------------------------|-----------------------------|
|------------------------------|-----------------------------|
|-10---------------------------|-(10)--------------------10--|
|--x---------------------------|--(x)---------------------x--|
|--8---------------------------|--(8)---------------------8--|
|------------------------------|-----------------------------|
|
|  W                              +H.                     Q
|------------------------------|-----------------------------|
|------------------------------|-----------------------------|
|------------------------------|-----------------------------|
|-11---------------------------|-(11)--------------------11--|
|--x---------------------------|--(x)---------------------x--|
|-11---------------------------|-(11)--------------------11--|
|
|  PM--------------|   PM---------------------------|
|  S S S S S S S S E E S S S S     S  S S S S S S S E Q.
|------------------------------|-----------------------------|
|------------------------------|-----------------------------|
|------------------------------|-----------------------------|
|------------------------------|-----------------------------|
|--0-0-0-0-0-0-0-0-0---0-0-0-0-|---0--0-0-0-0-0-0-0-0--------|
|--0-0-0-0-0-0-0-0-0---0-0-0-0-|---0--0-0-0-0-0-0-0-0--------|


  D5                                                   F5E5  D5
   E    +E     Q        E  +E  Q         E   +E    Q   E +E  Q
|--------------------------------------|------------------------|
|--------------------------------------|------------------------|
|-10---(10)s===9--------9--(9)s7-------|-7---(7)s==5---5-(5)s3--|
|--x----(x)----x--------x--(x)-x-------|-x---(x)---x---x-(x)-x--|
|--8----(8)s===7--------7--(7)s5-------|-5---(5)s==3---3-(3)s1--|
|--------------------------------------|------------------------|
|
|  E    +E     Q        E  +E  Q         E   +E    Q   E +E  Q
|--------------------------------------|------------------------|
|--------------------------------------|------------------------|
|--------------------------------------|------------------------|
|-11---(11)s==10-------10-(10)s8-------|-8---(8)s==7---7-(7)s5--|
|--x----(x)----x--------x--(x)-x-------|-x---(x)---x---x-(x)-x--|
|-11---(11)s==10-------10-(10)s8-------|-8---(8)s==7---7-(7)s5--|
|
|  PM------------------|       PM------------------|   PM----|
|  S S   S  S  S S S S  E   E  S S S S   S S  S  S E E E  E  Q
|--------------------------------------|------------------------|
|--------------------------------------|------------------------|
|--------------------------------------|------------------------|
|--------------------------------------|------------------------|
|--0-0---0--0--0-0-0-0--0------0-0-0-0-|-0-0--0--0-0---3--2--0--|
|--0-0---0--0--0-0-0-0--0------0-0-0-0-|-0-0--0--0-0---3--2--0--|


  D5
  Gtrs IV, V
                                                   >
  W                             +H                +H
|-----------------------------|----------------------------|
|-----------------------------|----------------------------|
|-7---------------------------|-(7)---------------(7)------|
|-4---------------------------|-(4)---------------(4)------|
|-5---------------------------|-(5)---------------(5)------|
|-----------------------------|----------------------------|
|
| Gtr I
| PM--------------|   PM------------------------|
| S S S S S S S S E E S S S S    S  S S S S S S S  Q    Q
|-----------------------------|----------------------------|
|-----------------------------|-------------------11---10--|
|-----------------------------|-------------------14---13--|
|-----------------------------|----------------------------|
|-----------------------------|----------------------------|
|-0-0-0-0-0-0-0-0-0---0-0-0-0-|--0--0-0-0-0-0-0-0----------|
|
| Gtr II
| PM--------------|   PM------------------------|
| S S S S S S S S E E S S S S    S  S S S S S S S  H
|-----------------------------|----------------------------|
|-----------------------------|----------------------------|
|-----------------------------|----------------------------|
|-----------------------------|----------------------------|
|-0-0-0-0-0-0-0-0-0---0-0-0-0-|--0--0-0-0-0-0-0-0----------|
|-0-0-0-0-0-0-0-0-0---0-0-0-0-|--0--0-0-0-0-0-0-0----------|


  D5
  +W                              W
|-------------------------------|------------------------||
|-------------------------------|------------------------||
|-(7)---------------------------|------------------------||
|-(4)---------------------------|------------------------||
|-(5)---------------------------|------------------------||
|-------------------------------|------------------------||
|
|  PM---------------|   PM----------------------|
|  S  S S S S S S S E E S S S S   S S S S S S S S E Q.
|-------------------------------|------------------------||
|-------------------------------|------------------------||
|-------------------------------|------------------------||
|-------------------------------|------------------------||
|-------------------------------|------------------------||
|--0--0-0-0-0-0-0-0-0---0-0-0-0-|-0-0-0-0-0-0-0-0-0------||
|
|  PM---------------|   PM----------------------|
|  S  S S S S S S S E E S S S S   S S S S S S S S E Q.
|-------------------------------|------------------------||
|-------------------------------|------------------------||
|-------------------------------|------------------------||
|-------------------------------|------------------------||
|--0--0-0-0-0-0-0-0-0---0-0-0-0-|-0-0-0-0-0-0-0-0-0------||
|--0--0-0-0-0-0-0-0-0---0-0-0-0-|-0-0-0-0-0-0-0-0-0------||


   Verse
    N.C.
    Gtr I
        PM    PM          PM    PM
    E E E E E E E E   E E E E E E E E
||------------------|-----------------|
||o-----------------|-----------------|
||------------------|-----------------|
||------------------|-----------------|
||o-5h6---5h6---5h6-|-1h3---1h3---1h3-|
||------0-----0-----|-----0-----0-----|
|
|   Gtr II
|       PM    PM          PM    PM
|   E E E E E E E E   E E E E E E E E
||------------------|-----------------|
||o-----------------|-----------------|
||------------------|-----------------|
||------------------|-----------------|
||o-5h6---5h6---5h6-|-1h3---1h3---1h3-|
||------0-----0-----|-----0-----0-----|


      PM    PM
  E E E E E E E E   S S S S S S S S S S S S S S S  S
|-----------------|----------------------------------|
|-----------------|----------------------------------|
|-----------------|-------------------------7-8-9-10-|
|-----------------|-----------------6-7-8-9----------|
|-5h6---5h6---5h6-|---------5-6-7-8------------------|
|-----0-----0-----|-6-7-8-9--------------------------|
|
|     PM    PM
| E E E E E E E E   S S S S S S S S S S S S S S S  S
|-----------------|----------------------------------|
|-----------------|----------------------------------|
|-----------------|-------------------------3-4-5--6-|
|-----------------|-----------------2-3-4-5----------|
|-5h6---5h6---5h6-|---------1-2-3-4------------------|
|-----0-----0-----|-2-3-4-5--------------------------|


  N.C.
      PM    PM          PM    PM          PM    PM
  E E E E E E E E   E E E E E E E E   E E E E E E E E
|-----------------|-----------------|-----------------|
|-----------------|-----------------|-----------------|
|-----------------|-----------------|-----------------|
|-----------------|-----------------|-----------------|
|-5h6---5h6---5h6-|-1h3---1h3---1h3-|-5h6---5h6---5h6-|
|-----0-----0-----|-----0-----0-----|-----0-----0-----|
|
|     PM    PM          PM    PM          PM    PM
| E E E E E E E E   E E E E E E E E   E E E E E E E E
|-----------------|-----------------|-----------------|
|-----------------|-----------------|-----------------|
|-----------------|-----------------|-----------------|
|-----------------|-----------------|-----------------|
|-5h6---5h6---5h6-|-1h3---1h3---1h3-|-5h6---5h6---5h6-|
|-----0-----0-----|-----0-----0-----|-----0-----0-----|


  S S S S S S S S S S S S S S S S
|-----------------------------------||
|----------------------------------o||
|-----------------------------------||
|-----------------------------------||
|----------------------------------o||
|-2-2-2-2-3-3-3-3-6-6-6-6-2-2-2-2---||
|
| S S S S S S S S S S S S S S S S
|-----------------------------------||
|----------------------------------o||
|-----------------------------------||
|-----------------------------------||
|----------------------------------o||
|-2-2-2-2-3-3-3-3-6-6-6-6-2-2-2-2---||


   Breakdown
    D5
    Gtr I
    PM--------------|   PM------------------------|
    S S S S S S S S E E S S S S   S S S S S S S S E Q.
||------------------------------|-------------------------|
||o-----------------------------|-------------------------|
||------------------------------|-------------------------|
||------------------------------|-------------------------|
||o-----------------------------|-------------------------|
||--0-0-0-0-0-0-0-0-0---0-0-0-0-|-0-0-0-0-0-0-0-0-0-------|
|
|   Gtr II
|   PM--------------|   PM------------------------|
|   S S S S S S S S E E S S S S   S S S S S S S S E Q.
||------------------------------|-------------------------|
||o-----------------------------|-------------------------|
||------------------------------|-------------------------|
||------------------------------|-------------------------|
||o-0-0-0-0-0-0-0-0-0---0-0-0-0-|-0-0-0-0-0-0-0-0-0-------|
||--0-0-0-0-0-0-0-0-0---0-0-0-0-|-0-0-0-0-0-0-0-0-0-------|


                      1.,2.,3.
  D5
  PM--------------|   PM-------
  S S S S S S S S E E S S S S
|-----------------------------|
|-----------------------------|
|-----------------------------|
|-----------------------------|
|-----------------------------|
|-0-0-0-0-0-0-0-0-0---0-0-0-0-|
|
| PM--------------|   PM-------
| S S S S S S S S E E S S S S
|-----------------------------|
|-----------------------------|
|-----------------------------|
|-----------------------------|
|-0-0-0-0-0-0-0-0-0---0-0-0-0-|
|-0-0-0-0-0-0-0-0-0---0-0-0-0-|


                              4.
                  N.C.        D5  Bb5  A5   F5
                             5/4
 ---------------|             PM|
  S S S S S S S S  Q   Q   4x E E Q.   Q.   Q
|--------------------------||--------------------||
|-----------------11--10--o||--------------------||
|-----------------14--13---||--------------------||
|--------------------------||--------------------||
|-------------------------o||-0-0-8----7----3----||
|-0-0-0-0-0-0-0-0----------||-0-0-8----7----3----||
|
|---------------|             PM|
| S S S S S S S S  H       4x E E Q.   Q.   Q
|--------------------------||--------------------||
|-------------------------o||--------------------||
|--------------------------||--------------------||
|--------------------------||--------------------||
|-0-0-0-0-0-0-0-0---------o||-0-0-8----7----3----||
|-0-0-0-0-0-0-0-0----------||-0-0-8----7----3----||


 Chorus
  D5                                   E5 F5 Bb5
 4/4
  Gtr III
  H     Q  Q    Q   Q  Q   Q      +Q   Q  Q  Q
|-------------|-8---------10---|-(10)------------|
|-------6-----|-----6----------|-------6-----5---|
|-7--------7--|--------7-------|----------7------|
|-------------|----------------|-----------------|
|-------------|----------------|-----------------|
|-------------|----------------|-----------------|
|
| Gtrs I, II
|          PM-----|        PM|
| H.       Q    E E H      E E     Q   Q  Q  Q
|-------------|----------------|-----------------|
|-------------|----------------|-----------------|
|-------------|----------------|-----------------|
|-------------|----------------|-----------------|
|-0--------0--|-0-0--------0-0-|---0---2--3--8---|
|-0--------0--|-0-0--------0-0-|---0---2--3--8---|


  Bb5                                   G5 A5 D5
   H     Q  Q    Q   Q  Q   Q      +Q   Q  Q  Q
|--------------|-8---------10---|-(10)-----------|
|--------6-----|-----6----------|-------6--------|
|--7--------7--|--------7-------|----------7--7--|
|--------------|----------------|----------------|
|--------------|----------------|----------------|
|--------------|----------------|----------------|
|
|           PM-----|        PM|
| +H.       Q    E E H      E E     Q   Q  Q  Q
|--------------|----------------|----------------|
|--------------|----------------|----------------|
|--------------|----------------|----------------|
|--------------|----------------|----------------|
|-(8)-------8--|-8-8--------8-8-|---8---5--7--0--|
|-(8)-------8--|-8-8--------8-8-|---8---5--7--0--|


    D5                                    E5 F5 Bb5
     H     Q  Q    Q   Q  Q   Q      +Q   Q  Q  Q
||---------------|-8---------10---|-(10)-----------|
||o--------6-----|-----6----------|-------6-----5--|
||---7--------7--|--------7-------|----------7-----|
||---------------|----------------|----------------|
||o--------------|----------------|----------------|
||---------------|----------------|----------------|
|
|             PM-----|        PM|
|   +H.       Q    E E H      E E     Q   Q  Q  Q
||---------------|----------------|----------------|
||o--------------|----------------|----------------|
||---------------|----------------|----------------|
||---------------|----------------|----------------|
||o-(0)-------0--|-0-0--------0-0-|---0---2--3--8--|
||--(0)-------0--|-0-0--------0-0-|---0---2--3--8--|


                                  1.,2.              3.
  Bb5                                   G5 A5 D5     Bb5 G5 A5
   H     Q  Q    Q   Q  Q   Q      +Q   Q  Q  Q   3x  Q  Q  Q  Q
|--------------|-8---------10---|-(10)------------||-10-----------||
|--------6-----|-----6----------|-------6--------o||-----6--------||
|--7--------7--|--------7-------|----------7--7---||--------7--7--||
|--------------|----------------|-----------------||--------------||
|--------------|----------------|----------------o||--------------||
|--------------|----------------|-----------------||--------------||
|
|           PM-----|        PM|
| +H.       Q    E E H      E E     Q   Q  Q  Q   3x  Q  Q  H
|--------------|----------------|-----------------||--------------||
|--------------|----------------|----------------o||--------------||
|--------------|----------------|-----------------||--------------||
|--------------|----------------|-----------------||--------------||
|-(8)-------8--|-8-8--------8-8-|---8---5--7--0--o||--8--5--7-----||
|-(8)-------8--|-8-8--------8-8-|---8---5--7--0---||--8--5--7-----||


 Outro
  D5
  H    Q  Q     Q   Q  Q   Q     +Q   Q  Q  Q
|------------|--8---------10--|-(10)-----------|
|------6-----|------6---------|-------6-----5--|
|-7-------7--|---------7------|----------7-----|
|------------|----------------|----------------|
|------------|----------------|----------------|
|------------|----------------|----------------|
|
| W            +W                +W
|------------|----------------|----------------|
|------------|----------------|----------------|
|------------|----------------|----------------|
|------------|----------------|----------------|
|-0----------|-(0)------------|--(0)-----------|
|-0----------|-(0)------------|--(0)-----------|


  D5
   H     Q  Q     Q   Q  Q   Q     +Q   Q  Q  Q
|--------------|--8---------10--|-(10)-----------|
|--------6-----|------6---------|-------6--------|
|--7--------7--|---------7------|----------7--7--|
|--------------|----------------|----------------|
|--------------|----------------|----------------|
|--------------|----------------|----------------|
|
| +W             +W                +W
|--------------|----------------|----------------|
|--------------|----------------|----------------|
|--------------|----------------|----------------|
|--------------|----------------|----------------|
|-(0)----------|-(0)------------|--(0)-----------|
|-(0)----------|-(0)------------|--(0)-----------|


  H.=H                             Q=140H.=H   Q=70
  D5
   \2______________________________________________
   H      Q  Q     Q   Q  Q   Q     +Q   Q  Q  Q
|---------------|--8---------10--|-(10)-----------|
|---------6-----|------6---------|-------6-----5--|
|--7---------7--|---------7------|----------7-----|
|---------------|----------------|----------------|
|---------------|----------------|----------------|
|---------------|----------------|----------------|
|
|  >
| +W              +W                +W
|---------------|----------------|----------------|
|---------------|----------------|----------------|
|---------------|----------------|----------------|
|---------------|----------------|----------------|
|-(0)-----------|-(0)------------|--(0)-----------|
|-(0)-----------|-(0)------------|--(0)-----------|


  Q=140
  (Dm)           (Dm7)          (Dm)
  Gtr III
  \4____________________________________________
  H      Q  Q    Q  Q  Q   Q     +Q   Q  Q  Q
|--------------|-8--------10--|-(10)-----------|
|--------6-----|----6---------|-------6--------|
|-7---------7--|-------7------|----------7--7--|
|--------------|--------------|----------------|
|--------------|--------------|----------------|
|--------------|--------------|----------------|


  H.=H                          Q=120H.=H   Q=60
  (Dm)           (Dm7)          (Dm)
  \6____________________________________________
  H      Q  Q    Q  Q  Q   Q     +Q   Q  Q  Q
|--------------|-8--------10--|-(10)-----------|
|--------6-----|----6---------|-------6-----5--|
|-7---------7--|-------7------|----------7-----|
|--------------|--------------|----------------|
|--------------|--------------|----------------|
|--------------|--------------|----------------|


  Q=80
  (Dm)
  \7
  H     Q  Q    +W           +W
|-------------|------------|--------*|
|-------6-----|------------|--------*|
|-7--------7--|-(7)--------|-(7)----*|
|-------------|------------|--------*|
|-------------|------------|--------*|
|-------------|------------|--------*|


Duration Legend
---------------
W - whole; H - half; Q - quarter; E - 8th; S - 16th; T - 32nd; X - 64th; a - acciaccatura
+ - note tied to previous; . - note dotted; .. - note double dotted
Uncapitalized letters represent notes that are staccato (1/2 duration)
Irregular groupings are notated above the duration line
Duration letters will always appear directly above the note/fret number it represents the
duration for.  Duration letters with no fret number below them represent rests.  Multi-
bar rests are notated in the form Wxn, where n is the number of bars to rest for.  Low
melody durations appear below the staff

Tablature Legend
----------------
 h   - hammer-on
 p   - pull-off
 b   - bend
 pb  - pre-bend
 r   - bend release (if no number after the r, then release immediately)
 /\  - slide into or out of (from/to "nowhere")
 s   - legato slide
 S   - shift slide
  - natural harmonic
[n]  - artificial harmonic
n(n) - tapped harmonic
 ~   - vibrato
 tr  - trill
 T   - tap
 TP  - trem. picking
 PM  - palm muting
\n/  - tremolo bar dip; n = amount to dip
 \n  - tremolo bar down
 n/  - tremolo bar up
/n\  - tremolo bar inverted dip
 =   - hold bend; also acts as connecting device for hammers/pulls
 <>  - volume swell (louder/softer)
 x   - on rhythm slash represents muted slash
 o   - on rhythm slash represents single note slash

Misc Legend
-----------
 |  - bar
||  - double bar
||o - repeat start
o|| - repeat end
*|  - double bar (ending)
 :  - bar (freetime)
 $  - Segno
 &  - Coda
Tempo markers -  = BPM(8/16=s8/s16), where s8 = swing 8ths, s16 = swing 16ths


***************************************************************************************
***************************************************************************************





Comments


Popular Caliban tabs & chords
Arena Of Concealment Bass Tabs
Vicious Circle Bass Tabs
Beloved And The Hatred Tabs
Detect Your Liberty Tabs
Entrance Tabs
I Rape Myself 1 Tabs
I Will Never Let You Down Tabs
I Will Never Let You Down 1 Tabs
Screams From The Abyss Tabs
Skit1 Tabs


Song lyrics



↑ Back to top | Tablatures and chords are parodies/interpretations of the original songs. You may use it for private study, scholarship, research or language learning purposes only
© 2014 AZChords.com Contact us | Privacy policy | DMCA | Add/correct tabs | Request tabs | Top 50 tabs