» » »

Cake, She Will Come Back To Me Bass tabs (ver.1)

Artists:  A B C D E F G H I J K L M N O P Q R S T U V W X Y Z # 

She Will Come Back To Me Bass tabs (ver.1)

Cake Tabs
 Rating:
4/5 (4 votes)
She Will Come Back To Me lessons Tabs too difficult? Try these video lessons and learn fast
1
                Intro
G:-----------------------------------------------7---7---7-------|
D:-------5---5---5------------5-7-5-----------7---7-------7------|
A:-----5---5-------5------5-7---------3-4-5------------------5---|
E:-3------------------3------------------------------------------|

G:------------------------------------------------------------|
D:-----------------------7---7---7----------------------------|
A:-----5-7-5-----------7---7-------7----------5-7-----2-3-5---|
E:-5-7---------8-7-5------------------5---5-7-----5-----------|

G:---7---7---7------------------------------------------------|
D:-7---7-------7----------------------------------------------|
A:----------------3-----3-4-5---5---5-------------------------|
E:--------------------3-------5-------5-----------------------|

Chorus - Repeat Intro then play this...
G:--------------------------------------------|
D:-------5---5---5----------------------------|
A:-----5---5-------5--3-----3-4-5---5---5-----|
E:-3----------------------3-------5-------5---|

Bridge:
G:-----7-8-9------------------2-3-4--------------------------|
D:----------------0-5-0---------------------0----------------|
A:----------------------2---------------0-2---2--------------|
E:-8----------8-9-----------3---------3---------3------------|

G:-----------------------------------------------------------|
D:-----------------------------5---5---5---------------------|
A;-3-----2-3-4-5-----5-------5---5-------5-------------------|
E:-----3-----------5---5-3-----------------------------------|

G:-----7-8-9------------------2-3-4--------------------------|
D:----------------0-5-0---------------------0----------------|
A:----------------------2---------------0-2---2--------------|
E:-8----------8-9-----------3---------3---------3------------|

G:------------------------------------------------|
D:------------------------------------------------|
A;-3-----2-3-4-5-----5-------------3-----3-4-5----|
E:-----3-----------5---5-3---3-5-3-----3----------|

G:-------------------------------------------------|
D:-------------------------------------------------|
A:---5---5---5----5----5---------------------------|
E:-5---5-------5-----5---5-2-2--2-3-3-5------------|
            
Submit corrections

comments powered by Disqus
↑ Back to top | Cake Bass for She Will Come Back To Me. Lyrics for acoustic guitar and electric guitar. 1 Tablatures and chords are parodies/interpretations of the original songs. You may use it for private study, scholarship, research or language learning purposes only