» » »

Cake, Mr Mastodon Farm Tabs (ver.1)

Artists:  A B C D E F G H I J K L M N O P Q R S T U V W X Y Z # 

Mr Mastodon Farm Tabs (ver.1)

Cake Tabs
 Rating:
4/5 (4 votes)
Mr Mastodon Farm lessons Tabs too difficult? Try these video lessons and learn fast
                ----------------------------------------------------------------------------
                             Mr. Mastodon Farm - CAKE
----------------------------------------------------------------------------
Tuning:Standard
e|---------------------------------------------------------------------------|
B|---------------------------------------------------------------------------|
G|---------------------------------------------------------------------------|
D|--[assorted introductory sounds]-------------------------------------------|
A|---------------------------------------------------------------------------|
E|---------------------------------------------------------------------------|
"birds fall from the window ledge..."                                 CYMBAL

e|--------------------------------|------------------------------------------|
B|--------------------------------|------------------------------------------|
G|--------------------------------|------------------------------------------|
D|6---6--7-7--9-9-6---6--7-7--9-9-|-nothing on guitar------------------------|
A|7---7--7-7--7-7-7---7--7-7--7-7-|-----------------------------------------—|
E|--------------------------------|------------------------------------------|
^10times.^                                                       “it becomes im-         

e|----------------|----------------|----------------------------------------|
B|----------------|----------------|----------------------------------------|
G|----------------|----------------|----------------------------------------|
D|-------7-7--9-9-|6---6--7-7--9-9-|6---------------------------------------|
A|-------7-7--7-7-|7---7--7-7--7-7-|7---------------------------------------|
E|----------------|----------------|----------------------------------------|
portant to me...”   ^5times^                                     “all materi-

e|----------------|----------------------------------|-----------------------|
B|----------------|----------------------------------|-----------------------|
G|----------------|----13-13-13---12--13---11-11-9/11|-9~~~~~~~~-------------|
D|6---6--7-7--9-9-|----11-11-11---14--11---9--9--7/9-|-----------------------|
A|7---7--7-7--7-7-|----------------------------------|--------[timepasses]---|
E|----------------|----------------------------------|-----------------------|
  als” ^5times^        ^4times^                             “but unless I get
e|----------------|----------------|----------------|------------------------|
B|----------------|----------------|----------------|------------------------|
G|----------------|----------------|----------------|------------------------|
D|-------7-7--9-9-|6---6--7-7--9-9-|----------------|------------------------|
A|-------7-7--7-7-|7---7--7-7--7-7-|----------------|------------------------|
E|----------------|----------------|----------------|------------------------|
  up,...”^3times^   ^6times^                       “it becomes important for 
e|--------------|-----------------------------------------------------------|
B|--------------|-----------------------------------------------------------|
G|--------------|-----------------------------------------------------------|
D|---7-7--9-9---|6---6--7-7--9-9--------------------------------------------|
A|---7-7--7-7---|7---7--7-7--7-7--------------------------------------------|
E|--------------|-----------------------------------------------------------|
  me..."^3times^                 ^20ish times^
| /  slide up
| \  slide down
| h  hammer-on
| p  pull-off
| ~  vibrato
| +  harmonic
| x  Mute note
=============================================================================
            
Submit corrections

comments powered by Disqus
↑ Back to top | Cake Tabs for Mr Mastodon Farm. Lyrics for acoustic guitar and electric guitar. Tablatures and chords are parodies/interpretations of the original songs. You may use it for private study, scholarship, research or language learning purposes only