» » »

Going The Distance Bass tabs (ver.1)

Artists:  A B C D E F G H I J K L M N O P Q R S T U V W X Y Z # 

Going The Distance Bass tabs (ver.1)

Cake
Rating:
5/5 (1 vote)

Hard to play? Try these video lessons and learn fast.
                Title	: Going The Distance
Author	: CALEB DOMINGO (from Manila, Philippines)

****************
Final Corrections by dredre

The verse part goes like this and repeats

G|------------------------|
D|------------------------|
A|-5-6-7-------5-6-7------|
E|-------0---0-------0-0--|

Then the Pre-chorus Part....

G|---------------------------------------------------|
D|------5--------------------------------------------|
A|-/7-----5-7--5-7--7-5-------------0-----7-7-7-5----|
E|----------------------7---0-1-2-3---0-----------7--|

Chorus..... "Coz' he's goin the distance...."

G|------------------------|
D|------------------------|
A|-5-6-7-------5-6-7------|
E|-------0---0-------0-0--|

It'll go like this in the end part of the chorus....

G|----------------------------------------------------|
D|------5------------------------------first time-----|
A|-/7--------------------------6----7--(5-7--7-5------|
E|---------5-7--5-7--7-5-2---7---7---------------7)---|
            
Hard to play? Try these video lessons and learn fast. | Correct




comments powered by Disqus
↑ Back to top | Tablatures and chords are parodies/interpretations of the original songs. You may use it for private study, scholarship, research or language learning purposes only