» » »

Cake, Bound Away Bass tabs (ver.1)

Artists:  A B C D E F G H I J K L M N O P Q R S T U V W X Y Z # 

Bound Away Bass tabs (ver.1)

Cake Tabs
 Rating:
4/5 (4 votes)
Bound Away lessons Tabs too difficult? Try these video lessons and learn fast
1
                Tuning: Standard (EADG)
Key:   h = hammer on
       p = pull off
       / = slide up
       \ = slide up
       ~ = vibrato / let ring
       ()= variation
   |:--:|= repeat this section (once if not specified)


Verse:
|-------------|-------------|-----------|
|.------------|---5~~--45~~.|-----------|
|.---5~~-----2|3~~---57----.|---5~~-----|
|-3~~---3~~35-|-------------|3~~--(3~~)-|

Chorus:
|-------------|------------|-----(7~~)--|------------|
|-------------|---5~~-----2|-----------4|------------|
|----5~~-----2|3~~---3~~35-|---5~~5~~57-|---5~~---5~~|
|-3~~---3~~35-|------------|3~~---------|3~~---3~~---|

Verse 3:
|-------------|-------------|
|.------------|--------45~~.|
|.------------|3~~~~~57----.|
|-3~~~~~~~~~~~|-------------|

This song is pretty easy. The break is just the chorus repeated a few times. Verse 3 is 
just a simplified version of the normal verse.

Message me or comment any corrections or whatever.
            
Submit corrections

comments powered by Disqus
↑ Back to top | Cake Bass for Bound Away. Lyrics for acoustic guitar and electric guitar. 1 Tablatures and chords are parodies/interpretations of the original songs. You may use it for private study, scholarship, research or language learning purposes only