» » »

In One Ear Bass tabs (ver.3)

Artists:  A B C D E F G H I J K L M N O P Q R S T U V W X Y Z # 

In One Ear Bass tabs (ver.3)

Cage The Elephant
Rating:
5/5 (1 vote)

Hard to play? Try these video lessons and learn fast.
                G|---------------|-------------|-------------|--------------|
D|---------------|-------------|-------------|--------------|
A|--9-9\\\-------|-------------|-------------|--------------|
E|0-------0~-----|0h2-2~-------|0h2-2~-------|0h2~~---------|

G|---------------|  |------------------|  |--------------------------|
D|---------------|  |------------------|  |--------------------------|
A|---------------|x1|------------------|x3|--------------------------|
E|0h2-2~---------|  |0h2-2-2-2-2-2-2-2-|  |0h222222222222222222222222|

G|------------------------------------------|
D|------------------------------------------|
A|--/9-7h9\---/9-7h9-7h9p7---/0-7h9\--------|x2
E|2---------2--------------2---------7--x-5-|

Verse:
G|-------------------------------------|
D|--4-2h4\---4-2h4p2\---4-2h4\---------|
A|-------------------------------------|x4
E|2--------2----------2---------7--x-5-|

Chorus:
G|-------------------------------------------------------------------------|
D|-------------------------------------------------------------------------|
A|--------------9\--------------(9)-(9)---------------9\-------------------|
E|0h2-2---5---7----0h2---5--5-7---------0h2-2---5---7----0h2-2---x--x-7-7--|

Instrumental:
G|------------------------------------------|
D|------------------------------------------|
A|--/9-7h9\---/9-7h9-7h9p7---/0-7h9\--------|x2
E|2---------2--------------2---------7--x-5-|

Verse:
G|-------------------------------------|
D|--4-2h4\---4-2h4p2\---4-2h4\---------|
A|-------------------------------------|x4
E|2--------2----------2---------7--x-5-|

Chorus:
G|-------------------------------------------------------------------------|
D|-------------------------------------------------------------------------|
A|--------------9\--------------(9)-(9)---------------9\-------------------|
E|0h2-2---5---7----0h2---5--5-7---------0h2-2---5---7----0h2-2---x--x-7-7--|

Guitar Solo:
G|------------------------------------------|
D|------------------------------------------|
A|--/9-7h9\---/9-7h9-7h9p7---/0-7h9\--------|x2
E|2---------2--------------2---------7--x-5-|

Bridge:
G|------------------------------|
D|------------------------------|
A|-----------0/---9~----7h9~----|
E|2~-----0----------------------|

G|------------------|  |---------------------|
D|------------------|  |---------------------|
A|7h9-9-9-9-9-9-9-9-|x3|7h9-9-9-9-9-7--------|
E|------------------|  |---------------9-7-5-|

====x2

Guitar solo:
G|------------------------------------------|
D|------------------------------------------|
A|--/9-7h9\---/9-7h9-7h9p7---/0-7h9\--------|x4
E|2---------2--------------2---------7--x-5-|


Verse:
G|-------------------------------------|
D|--4-2h4\---4-2h4p2\---4-2h4\---------|
A|-------------------------------------|x4
E|2--------2----------2---------7--x-5-|

Chorus:
G|-------------------------------------------------------------------------|
D|-------------------------------------------------------------------------|
A|--------------9\--------------(9)-(9)---------------9\-------------------|x2
E|0h2-2---5---7----0h2---5--5-7---------0h2-2---5---7----0h2-2---x--x-7-7--|

G|--------|
D|--------|
A|--------|
E|2-------|
            
Hard to play? Try these video lessons and learn fast. | Correct




comments powered by Disqus
↑ Back to top | Tablatures and chords are parodies/interpretations of the original songs. You may use it for private study, scholarship, research or language learning purposes only