>
 >
In One Ear 1

In One Ear 1 Guitar Tabs

Cage The Elephant - In One Ear 1 chords, tabs, tablatures, lyrics

Guitar lessons | Add/correct | Request | Top 50 tabs Artists:  A B C D E F G H I J K L M N O P Q R S T U V W X Y Z 0-9

In One Ear 1 Guitar Tabs – Cage The Elephant

CD, Sheet music, Poster

Do you like In One Ear 1? Share with your friends now
Bass TabsBass Tabs v2Bass Tabs v3ChordsTabsTabs v2Tabs v3Tabs v4Tabs v5Ukulele
All of the tabs I have found for this song,
come very close to perfect,
except for a few things.
The solo is always wrong,
and there's always a few extra chords,
written in for the rhythm guitar,
that shouldn't be there.
Other than that,
good job to everyone else who's tabbed this song out.
That being said,
I  know mine is 100% right.
I don't need everyone commenting on this,
or correcting it,
saying that the lead guitar is based around the fifth fret.
I tabbed it out around the lower register,
because it is a lot easier to solo there,
and it sounds way better.
Anyway, have fun.


TUNING: E STANDARD (BOTH GUITARS)


GUITAR 1 (LEAD): MEDIUM DISTORION

INTRO: 0:15-0:45

e|------|------|------|0---------------------|------|
B|10----|10----|10----|10H12B14V-P10---------|10-10-|
G|9--11-|9--11-|9--11-|---11-11------11-9H11-|9--11-|
D|------|------|------|----------------------|------|
A|------|------|------|----------------------|------|
E|------|------|------|----------------------|------|

e|0---------------------|------|0----------------|
B|10H12B14V-P10---------|10-10-|10H12B14V-P10----|
G|---11-11------11-9H11-|9--11-|---11-11------11-|
D|----------------------|------|-----------------|
A|----------------------|------|-----------------|
E|----------------------|------|-----------------|

e|0-----0--0--|0---------------------|0----------|
B|10-10-10-10-|10H12B14V-P10---------|10-10------|
G|---11----11-|---11-11------11-9H11-|---11-9H11-|
D|------------|----------------------|-----------|
A|------------|----------------------|-----------|
E|------------|----------------------|-----------|

e|0---------------------|0----------|0----------------|0----------|0--------|
B|10H12B14V-P10---------|10-10------|10H12B14V-P10----|10-10------|10H12B14V|
G|---11-11------11-9H11-|---11-9H11-|---11-11------11-|---11-9H11-|---11-11-|
D|----------------------|-----------|-----------------|-----------|---------|
A|----------------------|-----------|-----------------|-----------|---------|
E|----------------------|-----------|-----------------|-----------|---------|

e|--------|0-----0--0--|---------|
B|--------|10-10-10-10-|12B14-12-|
G|-P10-11-|---11-9--11-|11-11-11-|
D|--------|------------|---------|
A|--------|------------|---------|
E|--------|------------|---------|


FIRST VERSE: 0:46-1:09

e|--------|--------|--------|--------|
B|--------|--------|--------|--------|
G|-----2--|-----4--|-----2--|4---2---|
D|4-4--2--|4-4--4--|4-4--2--|4---2---|x4
A|4-4--0--|4-4--2--|4-4--0--|2---0---|
E|2-2-----|2-2-----|2-2-----|--------|

CHORUS: 1:10-1:20

e|---------|--------|---------|--------|
B|---------|--------|---------|--------|
G|------2--|4---2---|------2--|4---2---|
D|4-4---2--|4---2---|4-4---2--|4---2---|x2
A|4-4---0--|2---0---|4-4---0--|2---0---|
E|2-2------|--------|2-2------|--------|

BRIDGE: 1:21-1:30

e|0----------|0---------------------|0----------|0---------------------|
B|10-10------|10H12B14V-P10---------|10-10------|10H12B14V-P10---------|
G|9--11-9H11-|---11-11------11-9H11-|9--11-9H11-|---11-11------11-9H11-|
D|-----------|----------------------|-----------|----------------------|
A|-----------|----------------------|-----------|----------------------|
E|-----------|----------------------|-----------|----------------------|

e|0----------|0---------------------|0-----0--0--|----------|
B|10-10------|10H12B14V-P10---------|10-10-10-10-|12b14r-12-|
G|9--11-9H11-|---11-11------11-9H11-|9--11-9--11-|----------|
D|-----------|----------------------|------------|----------|
A|-----------|----------------------|------------|----------|
E|-----------|----------------------|------------|----------|

SECOND VERSE: 1:31-1:55
e|--------|--------|--------|--------|
B|--------|--------|--------|--------|
G|-----2--|-----4--|-----2--|4---2---|
D|4-4--2--|4-4--4--|4-4--2--|4---2---|x4
A|4-4--0--|4-4--2--|4-4--0--|2---0---|
E|2-2-----|2-2-----|2-2-----|--------|

CHORUS: 1:56-2:05

e|---------|--------|---------|--------|
B|---------|--------|---------|--------|
G|------2--|4---2---|------2--|4---2---|
D|4-4---2--|4---2---|4-4---2--|4---2---|x2
A|4-4---0--|2---0---|4-4---0--|2---0---|
E|2-2------|--------|2-2------|--------|

SECOND BRIDGE: 2:06-2:17


e|0----------|0---------------------|0----------|---------12-14P12H14P12-|
B|10-10------|10H12B14V-P10---------|10-10------|---12H14----------------|
G|9--11-9H11-|---11-11------11-9H11-|9--11-9H11-|11----------------------|
D|-----------|----------------------|-----------|------------------------|
A|-----------|----------------------|-----------|------------------------|
E|-----------|----------------------|-----------|------------------------|

e|0----------|0---------------------|0-----0--0--|---------|
B|10-10------|10H12B14V-P10---------|10-10-10-10-|12B14-12-|
G|9--11-9H11-|---11-11------11-9H11-|9--11-9--11-|---------|
D|-----------|----------------------|------------|---------|
A|-----------|----------------------|------------|---------|
E|-----------|----------------------|------------|---------|

INTERLUDE: 2:18-3:03

e|-------|----------|--------|--------|
B|-------|----------|--------|--------|
G|---2---|2-4P2H4P2-|----2---|--2-2---|
D|-4-2-4-|2-4P2H4P2-|4-4-2-4-|4-2-2---|x8
A|-4---4-|----------|4-4---4-|4-------|
E|-------|----------|--------|--------|


END SOLO: 3:04-3:26
e|--------|--------------|--------|--------------|------------------|
B|--------|--------------|--------|--------------|------------------|
G|--------|--------------|--------|-------9H11P9-|------------------|
D|7-------|7H9B10V-9P7---|7-------|7H9/11--------|9B10-9P7-9B10-9P7-|
A|-9-7-9--|------------9-|-9-7-9--|--------------|------------------|
E|--------|--------------|--------|--------------|------------------|


e|------------------|------------------|--------|-----------------|
B|------------------|------------------|--------|12B14-12P10------|
G|------------------|------------------|--------|------------11-9-|
D|9B10-9P7-9B10-9P7-|9B10-9P7-9B10R9P7-|9---7---|-----------------|
A|------------------|------------------|--------|-----------------|
E|------------------|------------------|--------|-----------------|

e|----------------------------------|--------------------|12H14V-------|
B|12B14-12P10------12B14-12P10------|12B14-12P10---------|-------------|
G|------------11-9-------------11-9-|------------11-9-11-|-------------|
D|----------------------------------|--------------------|-------------|
A|----------------------------------|--------------------|-------------|
E|----------------------------------|--------------------|-------------|

e|------------------|------------------|------14-14-------14-14-|---14---|
B|12B13-12P10-12-10-|12B13-12P10-12-10-|12B14-------12B14-------|14------|
G|------------------|------------------|------------------------|--------|
D|------------------|------------------|------------------------|--------|
A|------------------|------------------|------------------------|--------|
E|------------------|------------------|------------------------|--------|

THIRD VERSE: 3:27-3:38

e|--------|--------|--------|--------|
B|--------|--------|--------|--------|
G|-----2--|-----4--|-----2--|4---2---|
D|4-4--2--|4-4--4--|4-4--2--|4---2---|x2
A|4-4--0--|4-4--2--|4-4--0--|2---0---|
E|2-2-----|2-2-----|2-2-----|--------|


CHORUS: 3:38-4:01

e|---------|--------|---------|--------|
B|---------|--------|---------|--------|
G|------2--|4---2---|------2--|4---2---|
D|4-4---2--|4---2---|4-4---2--|4---2---|x3
A|4-4---0--|2---0---|4-4---0--|2---0---|
E|2-2------|--------|2-2------|--------|

e|---------|--------|---------|----------|
B|---------|--------|---------|----------|
G|------2--|4---2---|------2--|4---2-----|
D|4-4---2--|4---2---|4-4---2--|4---2--4--|
A|4-4---0--|2---0---|4-4---0--|2---0--4--|
E|2-2------|--------|2-2------|-------2--|

SECOND GUITAR (RHYTHM): CLEAN TO VERY LITTLE DISTORTION. LISTEN TO THE SONG CAREFULLY TO 
THE RHYTHM.


INTRO: 0:05-0:45


e|2-2-2-2-2-|0-0-2-2-2-|2-2-2-2-2-|0-0-2-2-2-|
B|2-2-2-2-2-|2-2-4-4-4-|2-2-2-2-2-|2-2-4-4-4-|
G|3-3-3-3-3-|2-2-4-4-4-|3-3-3-3-3-|2-2-4-4-4-|
D|4-4-4-4-4-|2-2-4-4-4-|4-4-4-4-4-|2-2-4-4-4-|x2
A|4-4-4-4-4-|0-0-2-2-2-|4-4-4-4-4-|0-0-2-2-2-|
E|2-2-2-2-2-|----------|2-2-2-2-2-|----------|


e|2-2-2-|2-2-2-2-2-2-2-0-|2-2-2-|2-2-2-2-2-2-2-0-|
B|2-2-2-|4-4-4-4-4-4-4-2-|2-2-2-|4-4-4-4-4-4-4-2-|
G|3-3-2-|4-4-4-4-4-4-4-2-|3-3-3-|4-4-4-4-4-4-4-2-|
D|4-4-4-|4-4-4-4-4-4-4-2-|4-4-4-|4-4-4-4-4-4-4-2-|x2
A|4-4-4-|2-2-2-2-2-2-2-0-|4-4-4-|2-2-2-2-2-2-2-0-|
E|2-2-2-|----------------|2-2-2-|----------------|

FIRST VERSE: SAME TIME AS LEAD


e|2-2-3-0-|2-2-2-2-|2-2-2-0-|2-2-2-0-|
B|2-2-3-2-|2-2-2-4-|2-2-2-2-|4-4-4-2-|
G|3-3-3-2-|3-3-3-4-|3-3-3-2-|4-4-4-2-|
D|4-4-4-2-|4-4-4-4-|4-4-4-2-|4-4-4-2-|x4
A|4-4-4-0-|4-4-4-2-|4-4-4-0-|2-2-2-0-|
E|2-2-2---|2-2-2---|2-2-2---|--------|

CHORUS: SAME TIME AS LEAD


e|2-2-2-2-2-|0-0-2-2-2-|2-2-2-2-2-|0-0-2-2-2-|
B|2-2-2-2-2-|2-2-4-4-4-|2-2-2-2-2-|2-2-4-4-4-|
G|3-3-3-3-3-|2-2-4-4-4-|3-3-3-3-3-|2-2-4-4-4-|
D|4-4-4-4-4-|2-2-4-4-4-|4-4-4-4-4-|2-2-4-4-4-|x2
A|4-4-4-4-4-|0-0-2-2-2-|4-4-4-4-4-|0-0-2-2-2-|
E|2-2-2-2-2-|----------|2-2-2-2-2-|----------|

BRIDGE: SAME TIME AS LEAD


e|------|----------------|------|----------------|
B|------|----------------|------|----------------|
G|------|4-4-4-4-4-4-4-2-|------|4-4-4-4-4-4-4-2-|
D|4-4-4-|4-4-4-4-4-4-4-2-|4-4-4-|4-4-4-4-4-4-4-2-|x2
A|4-4-4-|2-2-2-2-2-2-2-0-|4-4-4-|2-2-2-2-2-2-2-0-|
E|2-2-2-|----------------|2-2-2-|----------------|

SECOND VERSE: SAME AS LEAD


e|2-2-3-0-|2-2-2-2-|2-2-2-0-|2-2-2-0-|
B|2-2-3-2-|2-2-2-4-|2-2-2-2-|4-4-4-2-|
G|3-3-3-2-|3-3-3-4-|3-3-3-2-|4-4-4-2-|
D|4-4-4-2-|4-4-4-4-|4-4-4-2-|4-4-4-2-|x4
A|4-4-4-0-|4-4-4-2-|4-4-4-0-|2-2-2-0-|
E|2-2-2---|2-2-2---|2-2-2---|--------|

CHORUS: SAME AS LEAD


e|2-2-2-2-2-|0-0-2-2-2-|2-2-2-2-2-|0-0-2-2-2-|
B|2-2-2-2-2-|2-2-4-4-4-|2-2-2-2-2-|2-2-4-4-4-|
G|3-3-3-3-3-|2-2-4-4-4-|3-3-3-3-3-|2-2-4-4-4-|
D|4-4-4-4-4-|2-2-4-4-4-|4-4-4-4-4-|2-2-4-4-4-|x2
A|4-4-4-4-4-|0-0-2-2-2-|4-4-4-4-4-|0-0-2-2-2-|
E|2-2-2-2-2-|----------|2-2-2-2-2-|----------|


SECOND BRIDGE: SAME AS LEAD


e|------|----------------|------|----------------|
B|------|----------------|------|----------------|
G|------|4-4-4-4-4-4-4-2-|------|4-4-4-4-4-4-4-2-|
D|4-4-4-|4-4-4-4-4-4-4-2-|4-4-4-|4-4-4-4-4-4-4-2-|x2
A|4-4-4-|2-2-2-2-2-2-2-0-|4-4-4-|2-2-2-2-2-2-2-0-|
E|2-2-2-|----------------|2-2-2-|----------------|


INTERLUDE: SAME AS LEAD

e|--------|--------|--------|--------|
B|--------|--------|--------|--------|
G|--------|--------|--------|--------|
D|--------|--------|--------|--------|x4
A|--------|--------|--------|--------|
E|--------|--------|--------|--------|


END SOLO: SAME AS LEAD


e|2-2-3-0-|2-2-2-2-|2-2-2-0-|2-2-2-0-|
B|2-2-3-2-|2-2-2-4-|2-2-2-2-|4-4-4-2-|
G|3-3-3-2-|3-3-3-4-|3-3-3-2-|4-4-4-2-|
D|4-4-4-2-|4-4-4-4-|4-4-4-2-|4-4-4-2-|x4
A|4-4-4-0-|4-4-4-2-|4-4-4-0-|2-2-2-0-|
E|2-2-2---|2-2-2---|2-2-2---|--------|


THIRD VERSE: SAME AS LEAD


e|2-2-3-0-|2-2-2-2-|2-2-2-0-|2-2-2-0-|
B|2-2-3-2-|2-2-2-4-|2-2-2-2-|4-4-4-2-|
G|3-3-3-2-|3-3-3-4-|3-3-3-2-|4-4-4-2-|
D|4-4-4-2-|4-4-4-4-|4-4-4-2-|4-4-4-2-|x2
A|4-4-4-0-|4-4-4-2-|4-4-4-0-|2-2-2-0-|
E|2-2-2---|2-2-2---|2-2-2---|--------|


CHORUS: SAME AS LEAD


e|2-2-2-2-2-|0-0-2-2-2-|2-2-2-2-2-|0-0-2-2-2-|
B|2-2-2-2-2-|2-2-4-4-4-|2-2-2-2-2-|2-2-4-4-4-|
G|3-3-3-3-3-|2-2-4-4-4-|3-3-3-3-3-|2-2-4-4-4-|
D|4-4-4-4-4-|2-2-4-4-4-|4-4-4-4-4-|2-2-4-4-4-|x3
A|4-4-4-4-4-|0-0-2-2-2-|4-4-4-4-4-|0-0-2-2-2-|
E|2-2-2-2-2-|----------|2-2-2-2-2-|----------|

e|2-2-2-2-2-|0-0-2-2-2-|2-2-2-2-2-|0-0-2-2-2-2-|
B|2-2-2-2-2-|2-2-4-4-4-|2-2-2-2-2-|2-2-4-4-4-2-|
G|3-3-3-3-3-|2-2-4-4-4-|3-3-3-3-3-|2-2-4-4-4-3-|
D|4-4-4-4-4-|2-2-4-4-4-|4-4-4-4-4-|2-2-4-4-4-4-|
A|4-4-4-4-4-|0-0-2-2-2-|4-4-4-4-4-|0-0-2-2-2-4-|
E|2-2-2-2-2-|----------|2-2-2-2-2-|----------2-|

LYRICS:

They say we ain't got the style
We ain't got the class
We ain't got the tunes that's
Gonna put us on the map
And I'm a phony in disguise
Trin' to make the radio
I'm an anti-social anarchist
I sound like so and so

They say I'm just a stupid kid
Another crazy radical
Rock'n'roll is dead
I probably should have stayed in school
Another generation X
Who somehow slipped up through the cracks
Oh they'd love to see me fall
But I'm already on my back

So it goes in one ear and right out the other
People talking shit but you know I never bother
It goes in one ear and right out the other
People talking shit they can kiss the back of my hand

Now I know I'm not a saint
I've been a sinner all my life
I ain't tryin' to hide my flaws
I'd rather keep them in the light
They want to criticize, scrutinize
Cast another stone
Burn me at the stake
And sit and watch it from their throne

They say the devil is my pal
I do alot of drugs
The crowd will only like me
If they're really fuckin drunk
They think they know my thoughts
They think they know the least
If they'd listen to the words
They'd find a message tucked beneath

So it goes in one ear and right out the other
People talking shit but you know I never bother
It goes in one ear and right out the other
People talking shit they can kiss the back of my hand

Here's the moral to the story
We don't do it for the glory
We don't do it for the money
We don't do it for the fame
So all the critics who despise us
Go ahead and criticize us
It's your tyranny that drives us
Adds the fire to our flames

So it goes in one ear and right out the other
People talking shit but you know I never bother
It goes in one ear and right out the other
I'm only playing music 'cause you know I fucking love it

THATS IT FOR THIS SONG. FAIRLY SIMPLE AND REALLY REPETITIVE





Comments


Popular Cage The Elephant tabs & chords
Aberdeen 5 Bass Tabs
Ain't No Rest For The Wicked Bass Tabs
Back Against The Wall 1 Chords
Come A Little Closer 1 Chords
Come A Little Closer 2 Chords
Carry Me In Tabs
Flow 3 Tabs
In One Ear 2 Tabs
Aint No Rest For The Wicked Ukulele
Shiver Me Timber Ukulele


Song lyrics



↑ Back to top | Tablatures and chords are parodies/interpretations of the original songs. You may use it for private study, scholarship, research or language learning purposes only
© 2014 AZChords.com Contact us | Privacy policy | DMCA | Add/correct tabs | Request tabs | Top 50 tabs