» » »

Cage The Elephant, In One Ear Tabs (ver.1)

Artists:  A B C D E F G H I J K L M N O P Q R S T U V W X Y Z # 

In One Ear Tabs (ver.1)

Cage The Elephant Tabs
 Rating:
2.9/5 (9 votes)
In One Ear lessons Tabs too difficult? Try these video lessons and learn fast
                
This is my first tab so I hope it’s alright. Both the lead and rhythm guitar parts are 
and, as far as I’m aware, they’re both 100% correct.

4/4 Time
Lead Guitar - Standard Tuning

Intro

e|--------|--------|--------|--------|--------|--------------|--------|
B|--------|--------|--------|--------|--------|10h12b14TP10--|10--10--|
G|--------|--------|--------|--------|9-11----|------------11|--11--11|
D|--------|--------|4-4-----|--------|--------|--------------|--------|
A|--------|--------|4-4-----|--------|--------|--------------|--------|
E|--------|--------|2-2-----|--------|--------|--------------|--------|

e|--------------|----------|--------------|----------|--------------|
B|10h12b14TP10--|10--------|10h12b14TP10--|10--------|10h12b14TP10--|
G|------------11|--11-9-11-|------------11|--11-9-11-|------------11|
D|--------------|----------|--------------|----------|--------------|
A|--------------|----------|--------------|----------|--------------|
E|--------------|----------|--------------|----------|--------------|

e|----------|--------------|----------|--------|
B|10--------|10h12b14TP10--|10--10----|12b14r12|
G|--11-9-11-|------------11|--11--11--|--------|
D|----------|--------------|----------|--------|
A|----------|--------------|----------|--------|
E|----------|--------------|----------|--------|

Verse 1

e|--------|--------|--------|--------|
B|--------|--------|--------|--------|
G|-----2--|-----4--|-----2--|4---2---|
D|4-4--2--|4-4--4--|4-4--2--|4---2---|x4
A|4-4--0--|4-4--2--|4-4--0--|2---0---|
E|2-2-----|2-2-----|2-2-----|--------|

Chorus

e|--------|--------|--------|--------|
B|--------|--------|--------|--------|
G|-----2--|4---2---|-----2--|4---2---|
D|44---2--|4---2---|44---2--|4---2---|x2
A|44---0--|2---0---|44---0--|2---0---|
E|22------|--------|22------|--------|

Breakdown

e|----------|--------------|----------|--------------|
B|10--------|10h12b14TP10--|10--------|10h12b14TP10--|
G|--11-9-11-|------------11|--11-9-11-|------------11|
D|----------|--------------|----------|--------------|
A|----------|--------------|----------|--------------|
E|----------|--------------|----------|--------------|

e|----------|--------------|----------|--------|
B|10--------|10h12b14TP10--|10---10---|12b14r12|
G|--11-9-11-|------------11|--11---11-|--------|
D|----------|--------------|----------|--------|
A|----------|--------------|----------|--------|
E|----------|--------------|----------|--------|

Verse 2
e|--------|--------|--------|--------|
B|--------|--------|--------|--------|
G|-----2--|-----4--|-----2--|4---2---|
D|4-4--2--|4-4--4--|4-4--2--|4---2---|x4
A|4-4--0--|4-4--2--|4-4--0--|2---0---|
E|2-2-----|2-2-----|2-2-----|--------|

Chorus

e|--------|--------|--------|--------|
B|--------|--------|--------|--------|
G|-----2--|4---2---|-----2--|4---2---|
D|44---2--|4---2---|44---2--|4---2---|x2
A|44---0--|2---0---|44---0--|2---0---|
E|22------|--------|22------|--------|

Breakdown

e|----------|--------------|----------|-----12h14p12h14p12|
B|10--------|10h12b14TP10--|10--------|12h14--------------|
G|--11-9-11-|------------11|--11-9-11-|-------------------|
D|----------|--------------|----------|-------------------|
A|----------|--------------|----------|-------------------|
E|----------|--------------|----------|-------------------|

e|----------|--------------|----------|--------|
B|10--------|10h12b14TP10--|10---10---|12b14r12|
G|--11-9-11-|------------11|--11---11-|--------|
D|----------|--------------|----------|--------|
A|----------|--------------|----------|--------|
E|----------|--------------|----------|--------|

Bridge

e|-------|---------|-------|--------|
B|-------|---------|-------|--------|
G|---2---|2-4p2h4p2|---2---|--2-2---|
D|-4-2-4-|2-4p2h4p2|44-2-4-|4-2-2---|x4
A|-4---4-|---------|44---4-|4-------|
E|-------|---------|-------|--------|

Solo

e|--------|--------------|--------|------------|-----------------|
B|--------|--------------|--------|------------|-----------------|
G|--------|--------------|--------|------9h11p9|-----------------|
D|7-------|7h9b10TPr9p7--|7-------|7h9/11------|9b10r9p7-9b10r9p7|
A|-9-7-9--|------------9-|-9-7-9--|------------|-----------------|
E|--------|--------------|--------|------------|-----------------|


e|-----------------|-----------------|--------|----------------|
B|-----------------|-----------------|--------|12b14r12p10-----|
G|-----------------|-----------------|--------|-----------11-9-|
D|9b10r9p7-9b10r9p7|9b10r9p7-9b10r9p7|9---7---|----------------|
A|-----------------|-----------------|--------|----------------|
E|-----------------|-----------------|--------|----------------|

e|--------------------------------|------------------|12h14TP------|
B|12b14r12p10-----12b14r12p10-----|12b14r12p10-------|-------------|
G|-----------11-9------------11-9-|-----------11-9-11|-------------|
D|--------------------------------|------------------|-------------|
A|--------------------------------|------------------|-------------|
E|--------------------------------|------------------|-------------|

e|-----------------|-----------------|-----14-14-----14-14|---14---|
B|12b13r12p10-12-10|12b13r12p10-12-10|12b14-----12b14-----|14------|
G|-----------------|-----------------|--------------------|--------|
D|-----------------|-----------------|--------------------|--------|
A|-----------------|-----------------|--------------------|--------|
E|-----------------|-----------------|--------------------|--------|

Verse 3

e|--------|--------|--------|--------|
B|--------|--------|--------|--------|
G|-----2--|-----4--|-----2--|4---2---|
D|4-4--2--|4-4--4--|4-4--2--|4---2---|x2
A|4-4--0--|4-4--2--|4-4--0--|2---0---|
E|2-2-----|2-2-----|2-2-----|--------|


Chorus

e|--------|--------|--------|--------|
B|--------|--------|--------|--------|
G|-----2--|4---2---|-----2--|4---2---|
D|44---2--|4---2---|44---2--|4---2---|x4
A|44---0--|2---0---|44---0--|2---0---|
E|22------|--------|22------|--------|

On 4th time, last bar goes:

e|----------|
B|----------|
G|4---2-----|
D|4---2---4-|
A|2---0---4-|
E|--------2-|



RHYTHM GUITAR - Standard Tuning

Listen to song for rhythms

Intro
e|222---22|0-0--222|222---22|0-0--222|
B|222---22|2-2--444|222---22|2-2--444|
G|333---33|2-2--444|333---33|2-2--444|
D|444---44|2-2--444|444---44|2-2--444|x2 (second time with lead)
A|444---44|0-0--222|444---44|0-0--222|
E|222---22|--------|222---22|--------|


e|22-----2|22222220|22-----2|22222220|
B|22-----2|44444442|22-----2|44444442|
G|33-----2|44444442|33-----3|44444442|
D|44-----4|44444442|44-----4|44444442|x2
A|44-----4|22222220|44-----4|22222220|
E|22-----2|--------|22-----2|--------|

Verse 1
e|2-2-30--|2-2-22--|2-2-20--|2-2-20--|
B|2-2-32--|2-2-24--|2-2-22--|4-4-42--|
G|3-3-32--|3-3-34--|3-3-32--|4-4-42--|
D|4-4-42--|4-4-44--|4-4-42--|4-4-42--|x4
A|4-4-40--|4-4-42--|4-4-40--|2-2-20--|
E|2-2-2---|2-2-2---|2-2-2---|--------|

Chorus
e|222---22|0-0--222|222---22|0-0--222|
B|222---22|2-2--444|222---22|2-2--444|
G|333---33|2-2--444|333---33|2-2--444|
D|444---44|2-2--444|444---44|2-2--444|x2
A|444---44|0-0--222|444---44|0-0--222|
E|222---22|--------|222---22|--------|

Breakdown
e|--------|--------|--------|--------|
B|--------|--------|--------|--------|
G|--------|44444442|--------|44444442|
D|44-----4|44444442|44-----4|44444442|x2
A|44-----4|22222220|44-----4|22222220|
E|22-----2|--------|22-----2|--------|

Verse 2
e|2-2-30--|2-2-22--|2-2-20--|2-2-20--|
B|2-2-32--|2-2-24--|2-2-22--|4-4-42--|
G|3-3-32--|3-3-34--|3-3-32--|4-4-42--|
D|4-4-42--|4-4-44--|4-4-42--|4-4-42--|x4
A|4-4-40--|4-4-42--|4-4-40--|2-2-20--|
E|2-2-2---|2-2-2---|2-2-2---|--------|

Chorus
e|222---22|0-0--222|222---22|0-0--222|
B|222---22|2-2--444|222---22|2-2--444|
G|333---33|2-2--444|333---33|2-2--444|
D|444---44|2-2--444|444---44|2-2--444|x2
A|444---44|0-0--222|444---44|0-0--222|
E|222---22|--------|222---22|--------|


Breakdown
e|--------|--------|--------|--------|
B|--------|--------|--------|--------|
G|--------|44444442|--------|44444442|
D|44-----4|44444442|44-----4|44444442|x2
A|44-----4|22222220|44-----4|22222220|
E|22-----2|--------|22-----2|--------|


Bridge

e|--------|--------|--------|--------|
B|--------|--------|--------|--------|
G|--------|--------|--------|--------|
D|--------|--------|--------|--------|x4 (lead over top)
A|--------|--------|--------|--------|
E|--------|--------|--------|--------|


Solo

e|2-2-30--|2-2-22--|2-2-20--|2-2-20--|
B|2-2-32--|2-2-24--|2-2-22--|4-4-42--|
G|3-3-32--|3-3-34--|3-3-32--|4-4-42--|
D|4-4-42--|4-4-44--|4-4-42--|4-4-42--|x4
A|4-4-40--|4-4-42--|4-4-40--|2-2-20--|
E|2-2-2---|2-2-2---|2-2-2---|--------|

Verse 3

e|2-2-30--|2-2-22--|2-2-20--|2-2-20--|
B|2-2-32--|2-2-24--|2-2-22--|4-4-42--|
G|3-3-32--|3-3-34--|3-3-32--|4-4-42--|
D|4-4-42--|4-4-44--|4-4-42--|4-4-42--|x2
A|4-4-40--|4-4-42--|4-4-40--|2-2-20--|
E|2-2-2---|2-2-2---|2-2-2---|--------|

Chorus
e|222---22|0-0--222|222---22|0-0--222|
B|222---22|2-2--444|222---22|2-2--444|
G|333---33|2-2--444|333---33|2-2--444|
D|444---44|2-2--444|444---44|2-2--444|x4
A|444---44|0-0--222|444---44|0-0--222|
E|222---22|--------|222---22|--------|

On 4th time, last bar goes:

e|0-0-222-2|
B|2-2-444-2|
G|2-2-444-3|
D|2-2-444-4|
A|0-0-222-4|
E|--------2|

Key:
h hammer on
p pull off
b bend
r return bend
TP tremolo pick



Cheers.
            
Submit corrections

comments powered by Disqus
↑ Back to top | Cage The Elephant Tabs for In One Ear. Lyrics for acoustic guitar and electric guitar. Tablatures and chords are parodies/interpretations of the original songs. You may use it for private study, scholarship, research or language learning purposes only