» » »

Cage The Elephant, In One Ear Bass tabs (ver.2)

Artists:  A B C D E F G H I J K L M N O P Q R S T U V W X Y Z # 

In One Ear Bass tabs (ver.2)

Cage The Elephant Tabs
Rating:
1/5 (1 vote)
In One Ear lessons Tabs too difficult? Try these video lessons and learn fast
                -------------------------------------------------------------------------------
			     IN ONE EAR - Cage the Elephant
-------------------------------------------------------------------------------

This is my first tab, and the first tab for this song,
or at least it was when I put it on :)
I heard them play when they were supporting the Pigeon Detectives,
and they are awesome!
Anyone who doesn’t know them should get some of the singles!

Tuning: EADG


Intro

G|--------------------------------------|
D|--------------------------------------|
A|--------------------------------------|
E|-0h2-2~----0h2-2~----0h2-2~----0h2-2~-|

This bit starts at 0.14.
G|------------------------------------------------|
D|------------------------------------------------|
A|------------------------------------------------|
E|-6\2/14\12/14--2/14\12/14--2/14\12/14--7-7--0h5-| x2


Verse 1

G|-------------------------------------|
D|---4\2-4\2---4\2----4\2-4\2----------|
A|-------------------------------------|
E|-2---------2------2---------7-7--0h5-| x2


Chorus

G|---------------------------------|
D|---------------------------------|
A|---------------------------------|
E|-0h2-2--2h5-5--7-7---------------| x4


Intro/Post Chorus

G|------------------------------------------------|
D|------------------------------------------------|
A|------------------------------------------------|
E|-6\2/14\12/14--2/14\12/14--2/14\12/14--7-7--0h5-| x2


Verse 2

G|---------------------------------------|
D|---4\2-4\2---4\2-4~---4\2-4\2----------|
A|---------------------------------------|
E|-2---------2--------2---------7-7--0h5-| x2


Chorus

G|---------------------------------|
D|---------------------------------|
A|---------------------------------|
E|-0h2-2--2h5-5--7-7---------------| x4


Intro

G|------------------------------------------------|
D|------------------------------------------------|
A|------------------------------------------------|
E|-6\2/14\12/14--2/14\12/14--2/14\12/14--7-7--0h5-| x2


Bridge

G|------------------------------|
D|-------------------------2h4~-|
A|------------------------------|
E|-2~----2~---4-5-7--2~---------|

G|-------------------|
D|-2h4-4-4-4-4-4-4-4-|
A|-------------------|
E|-------------------| x3

G|----------------------|
D|-2h4-4-4-4--4-2-------|
A|----------------5-2---|
E|--------------------5-|


Solo

G|-------------------------------------------------|
D|-------------------------------------------------|
A|----------------------12-------------------------|
E|-6\2/14\12/14--2/14\12--14--2/14\12/14--7-7--0h5-| x4


Verse 3

G|---------------------------------------|
D|---4\2-4\2---4\2-4~---4\2-4\2----------|
A|---------------------------------------|
E|-2---------2--------2---------7-7--0h5-| x2


Chorus

G|---------------------------------|
D|---------------------------------|
A|---------------------------------|
E|-0h2-2--2h5-5--7-7---------------| x8


End on

G|---|
D|---|
A|---|
E|-2-|

That’s it, enjoy playing, it’s a great song.  My friend will be tabbing the guitar parts 
so it won’t be too long.


Key:
| \  slide down
| /  slide up
| h  hammer-on
| p  pull-off
            
Submit corrections

comments powered by Disqus
↑ Back to top | Cage The Elephant Bass for In One Ear. Lyrics for acoustic guitar and electric guitar. Tablatures and chords are parodies/interpretations of the original songs. You may use it for private study, scholarship, research or language learning purposes only