» » »

Buzzcocks, What Do I Get Tabs (ver.2)

Artists:  A B C D E F G H I J K L M N O P Q R S T U V W X Y Z # 

What Do I Get Tabs (ver.2)

Buzzcocks Tabs
Rating:
0/5 (0 votes)
What Do I Get lessons Tabs too difficult? Try these video lessons and learn fast
                what do i get 


the buzzcocks






intro
e:---------|
B:-5~~~~~--|
G:-5~~~~~--|
D:-5~~~~~--|
A:-3~~~~~--|
E:---------|


:------------------------------------------------------------------------|
:-5-5--5-5-5-5-5-5--5-5--5-5-5-5-5-5--5-5--5-5-5-5-5-5--5-5--5-5-5-5-5-5-|
:-5-5--5-5-5-5-5-5--5-5--5-5-5-5-5-5--5-5--5-5-5-5-5-5--5-5--5-5-5-5-5-5-|
:-5-5--5-5-5-5-5-5--5-5--5-5-5-5-5-5--5-5--5-5-5-5-5-5--5-5--5-5-5-5-5-5-|
:-3-3--3-3-3-3-3-3--3-3--3-3-3-3-3-3--3-3--3-3-3-3-3-3--3-3--3-3-3-3-3-3-|
:------------------------------------------------------------------------|

verse
e:-----------------------------------------------------------------|
B:-5-5--5-5-5-5-5-5--6-6-6--8-8-8-8--5-5--5-5-5-5-5-5--5-5-5-5-5-5-|
G:-5-5--5-5-5-5-5-5--5-5-5--7-7-7-7--5-5--5-5-5-5-5-5--5-5-5-5-5-5-|
D:-5-5--5-5-5-5-5-5--3-3-3--5-5-5-5--5-5--5-5-5-5-5-5--5-5-5-5-5-5-|
A:-3-3--3-3-3-3-3-3------------------3-3--3-3-3-3-3-3--3-3-3-3-3-3-|
E:-----------------------------------------------------------------|

chorus
e:------------------------------------------------|
B:------------------------------5-5--5-5-5-5-5-5--|
G:-5--5-5-5-5-5-5-5--4-4-4-4-4--5-5--5-5-5-5-5-5--|
D:-6--6-6-6-6-6-6-6--5-5-5-5-5--5-5--5-5-5-5-5-5--|
A:-6--6-6-6-6-6-6-6--5-5-5-5-5--3-3--3-3-3-3-3-3--|
E:-4--4-4-4-4-4-4-4--3-3-3-3-3--------------------|

verse
e:-----------------------------------------------------------------|
B:-5-5--5-5-5-5-5-5--6-6-6--8-8-8-8--5-5--5-5-5-5-5-5--5-5-5-5-5-5-|
G:-5-5--5-5-5-5-5-5--5-5-5--7-7-7-7--5-5--5-5-5-5-5-5--5-5-5-5-5-5-|
D:-5-5--5-5-5-5-5-5--3-3-3--5-5-5-5--5-5--5-5-5-5-5-5--5-5-5-5-5-5-|
A:-3-3--3-3-3-3-3-3------------------3-3--3-3-3-3-3-3--3-3-3-3-3-3-|
E:-----------------------------------------------------------------|

chorus
e:------------------------------------------------|
B:------------------------------5-5--5-5-5-5-5-5--|
G:-5--5-5-5-5-5-5-5--4-4-4-4-4--5-5--5-5-5-5-5-5--|
D:-6--6-6-6-6-6-6-6--5-5-5-5-5--5-5--5-5-5-5-5-5--|
A:-6--6-6-6-6-6-6-6--5-5-5-5-5--3-3--3-3-3-3-3-3--|
E:-4--4-4-4-4-4-4-4--3-3-3-3-3--------------------|


:-------------------------------------------------------------------------------------|
:--9---9--9--9--9--9--9--9--9--9---6--6-6-6-6-6-6-6-6--4-4-4--3-3-3--6-6-6--8-8-8-8-8-|
:--10--10-10-10-10-10-10-10-10-10--7--7-7-7-7-7-7-7-7--5-5-5--4-4-4--5-5-5--7-7-7-7-7-|
:--10--10-10-10-10-10-10-10-10-10--7--7-7-7-7-7-7-7-7--5-5-5--4-4-4--3-3-3--5-5-5-5-5-|
:--8---8--8--8--8--8--8--8--8--8---5--5-5-5-5-5-5-5-5--3-3-3--2-2-2-------------------|
:-------------------------------------------------------------------------------------|

chorus
e:------------------------------------------------|
B:------------------------------5-5--5-5-5-5-5-5--|
G:-5--5-5-5-5-5-5-5--4-4-4-4-4--5-5--5-5-5-5-5-5--|
D:-6--6-6-6-6-6-6-6--5-5-5-5-5--5-5--5-5-5-5-5-5--|
A:-6--6-6-6-6-6-6-6--5-5-5-5-5--3-3--3-3-3-3-3-3--|
E:-4--4-4-4-4-4-4-4--3-3-3-3-3--------------------|

solo
e:---------------------------------------------|-------------------------------------------|
B:---------------------------------------------|-------------------------------------------|
G:---------------------------------------------|-------------------------------------------|
D:---------------------------------------------|-------------------------------------------|
A:-3-3--3--3--3--3-3-3--5-5-5-5--5--5-5p3--3-3-|-3-3--3--3--3--3-3-3--5-5-5-5--5-5-5p3--3-3|
E:---------------------------------------------|-------------------------------------------|

e:-----------------------------------------------------------------|
B:-----------------------------------------------------------------|
G:-----------------------------------------------------------------|
D:-----------------------------------------------------------------|
A:-3--5-5--3--6-5--3--5-5--3------3--5-5--3--6-5--3--5-5--3--------|
E:-----------------------------------------------------------------|


:-------------------------------------------------------------------------------------|
:--9---9--9--9--9--9--9--9--9--9---6--6-6-6-6-6-6-6-6--4-4-4--3-3-3--6-6-6--8-8-8-8-8-|
:--10--10-10-10-10-10-10-10-10-10--7--7-7-7-7-7-7-7-7--5-5-5--4-4-4--5-5-5--7-7-7-7-7-|
:--10--10-10-10-10-10-10-10-10-10--7--7-7-7-7-7-7-7-7--5-5-5--4-4-4--3-3-3--5-5-5-5-5-|
:--8---8--8--8--8--8--8--8--8--8---5--5-5-5-5-5-5-5-5--3-3-3--2-2-2-------------------|
:-------------------------------------------------------------------------------------|

chorus
e:------------------------------------------------|
B:------------------------------5-5--5-5-5-5-5-5--|
G:-5--5-5-5-5-5-5-5--4-4-4-4-4--5-5--5-5-5-5-5-5--|
D:-6--6-6-6-6-6-6-6--5-5-5-5-5--5-5--5-5-5-5-5-5--|
A:-6--6-6-6-6-6-6-6--5-5-5-5-5--3-3--3-3-3-3-3-3--|
E:-4--4-4-4-4-4-4-4--3-3-3-3-3--------------------|

verse
e:------------------------------------------------------------------|
B:-5-5--5-5-5-5-5-5--6-6-6--8-8-8-8--5-5--5-5-5-5--6-5--5-5-5-5-5-5-|
G:-5-5--5-5-5-5-5-5--5-5-5--7-7-7-7--5-5--5-5-5-5--5-5--5-5-5-5-5-5-|
D:-5-5--5-5-5-5-5-5--3-3-3--5-5-5-5--5-5--5-5-5-5--3-5--5-5-5-5-5-5-|
A:-3-3--3-3-3-3-3-3------------------3-3--3-3-3-3----3--3-3-3-3-3-3-|
E:------------------------------------------------------------------|

e:-----------------------------------------------------------------|
B:-5-5--5-5-5-5-5-5--6-6-6--8-8-8-8--5-5--5-5-5-5-5-5--5-5-5-5-5-5-|
G:-5-5--5-5-5-5-5-5--5-5-5--7-7-7-7--5-5--5-5-5-5-5-5--5-5-5-5-5-5-|
D:-5-5--5-5-5-5-5-5--3-3-3--5-5-5-5--5-5--5-5-5-5-5-5--5-5-5-5-5-5-|
A:-3-3--3-3-3-3-3-3------------------3-3--3-3-3-3-3-3--3-3-3-3-3-3-|
E:-----------------------------------------------------------------|

chorus
e:------------------------------------------------|
B:------------------------------5-5--5-5-5-5-5-5--|
G:-5--5-5-5-5-5-5-5--4-4-4-4-4--5-5--5-5-5-5-5-5--|
D:-6--6-6-6-6-6-6-6--5-5-5-5-5--5-5--5-5-5-5-5-5--|
A:-6--6-6-6-6-6-6-6--5-5-5-5-5--3-3--3-3-3-3-3-3--|
E:-4--4-4-4-4-4-4-4--3-3-3-3-3--------------------|


e:---------------------------------|
B:--4-4--6--9---11--5--5-5-5-5-5-5-|
G:--5-5--7--10--12--5--5-5-5-5-5-5-|
D:--5-5--7--10--12--5--5-5-5-5-5-5-|
A:--3-3--5--8---10--3--3-3-3-3-3-3-|
E:---------------------------------|

e:-------------------------|
B:--4-4--6--9----11-----5--|
G:--5-5--7--10---12-----5--|
D:--5-5--7--10---12-----5--|
A:--3-3--5--8----10--2--3--|
E:-------------------------|
            

comments powered by Disqus
↑ Back to top | Buzzcocks Tabs for What Do I Get. Lyrics for acoustic guitar and electric guitar. Tablatures and chords are parodies/interpretations of the original songs. You may use it for private study, scholarship, research or language learning purposes only