» » »

Buzzcocks, What Do I Get Bass tabs (ver.1)

Artists:  A B C D E F G H I J K L M N O P Q R S T U V W X Y Z # 

What Do I Get Bass tabs (ver.1)

Buzzcocks Tabs
 Rating:
4/5 (4 votes)
What Do I Get lessons Tabs too difficult? Try these video lessons and learn fast
1
                -------------------------------------------------------------------------------
			     What do I get - The Buzzcocks
-------------------------------------------------------------------------------

Enjoy 

Tuning:EADG

Intro
G|---------------------------------------------------------------------------|
D|---------------------------------------------------------------------------|
A|-233333-233333-233333-233333-----------------------------------------------|
E|---------------------------------------------------------------------------|

Verse 'I just wanna lover'

G|---------------------------------------------------------------------------|
D|--------33335320----------------------33335320-----------------------------|
A|-2h33333---------2h333332h333332h33333--------2h333332h333-----------------|
E|---------------------------------------------------------------------------|

Chorus 'What do i get, WO-OAH'

G|---------------------------------------------------------------------------|
D|-3/666666555555----------------------3/666666555555------------------------|
A|---------------2h3333332h333332h33333--------------2h33332h33332h33333-----|
E|---------------------------------------------------------------------------|

Bridge 'I only get sleepless nights'

G|---------------------------------------------------------------------------|
D|-3322334455332200------3335555-3322334455332200------333555----------------|
A|-----------------33-11-------------------------33-11-----------------------|
E|-------------------0--0--------------------------0--0----------------------|

Chorus variation (theres an optional fill in each chorus after the bridge)

G|---------------------------------------------------------------------------|
D|-666665556p5------------------3/666865533220-------------------------------|
A|------------5-2h3332h3332h3333--------------2h33332h33332h3333-------------|
E|---------------------------------------------------------------------------|

Verse Variation (its one note during the first verse after the guitar solo is played)

G|---------------------------------------------------------------------------|
D|--------33335320------3------------------33335320--------------------------|
A|-2h33333--------2h333---2h33333--2h333333--------2h3332h33332h3333---------|
E|---------------------------------------------------------------------------|

Outro
                                                               Final two notes
G|-----------------------------------------------------------|---------------|
D|--3-5----------3-5----------3-5----------3-5---------------|---------------|
A|-5---33333333-5---33333333-5---33333333-5---33333333-------|2[hold]/3[hold]|
E|-----------------------------------------------------------|---------------|

Structure
Intro x1
Verse x1
Chorus x1
Verse x1
Chorus x1
Bridge x1
Chorus x1
Guitar Solo[Play verse] x2
Bridge x1
Chorus variation x1
Verse Variation x1
Chorus Variation x1
Outro play till the final notes

| /  slide up
| \  slide down
| h  hammer-on
| p  pull-off
| ~  vibrato
| +  harmonic
| x  Mute note
=====d=====o=====n=====g=====s=================================================
            
Submit corrections

comments powered by Disqus
↑ Back to top | Buzzcocks Bass for What Do I Get. Lyrics for acoustic guitar and electric guitar. 1 Tablatures and chords are parodies/interpretations of the original songs. You may use it for private study, scholarship, research or language learning purposes only